ISO-10303-21;
HEADER;
/* Generated by software containing ST-Developer
 * from STEP Tools, Inc. (www.steptools.com) 
 */

FILE_DESCRIPTION(
/* description */ ('Erdungsfahne M80'),
/* implementation_level */ '2;1');

FILE_NAME(
/* name */ 
'Y:\\Produkte\\Produktdaten_Produktdarstellungen\\Produktdarstellungen
_Bilder-3DModelle-etc\\3D-Modelle\\Kundenversionen\\Peppers\\RST-SL\\E
rdungsfahne\\Metrisch\\01567294-RST.stp',
/* time_stamp */ '2020-10-28T10:44:57+01:00',
/* author */ ('sl'),
/* organization */ (''),
/* preprocessor_version */ 'ST-DEVELOPER v16.5',
/* originating_system */ 'Autodesk Inventor 2017',
/* authorisation */ '');

FILE_SCHEMA (('AUTOMOTIVE_DESIGN { 1 0 10303 214 3 1 1 }'));
ENDSEC;

DATA;
#10=MECHANICAL_DESIGN_GEOMETRIC_PRESENTATION_REPRESENTATION('',(#16),#252);
#11=DIMENSIONAL_EXPONENTS(0.,0.,0.,0.,0.,0.,0.);
#12=(
CONVERSION_BASED_UNIT('degree',#13)
NAMED_UNIT(#11)
PLANE_ANGLE_UNIT()
);
#13=PLANE_ANGLE_MEASURE_WITH_UNIT(PLANE_ANGLE_MEASURE(0.01745329252),#255);
#14=SHAPE_REPRESENTATION_RELATIONSHIP('SRR','None',#258,#15);
#15=ADVANCED_BREP_SHAPE_REPRESENTATION('',(#17),#251);
#16=STYLED_ITEM('',(#267),#17);
#17=MANIFOLD_SOLID_BREP('Volumenk\X\F6rper1',#146);
#18=PLANE('',#163);
#19=PLANE('',#165);
#20=PLANE('',#167);
#21=PLANE('',#169);
#22=LINE('',#228,#30);
#23=LINE('',#231,#31);
#24=LINE('',#234,#32);
#25=LINE('',#237,#33);
#26=LINE('',#240,#34);
#27=LINE('',#243,#35);
#28=LINE('',#245,#36);
#29=LINE('',#247,#37);
#30=VECTOR('',#188,1000.);
#31=VECTOR('',#191,1000.);
#32=VECTOR('',#194,1000.);
#33=VECTOR('',#197,1000.);
#34=VECTOR('',#200,1000.);
#35=VECTOR('',#203,1000.);
#36=VECTOR('',#206,1000.);
#37=VECTOR('',#209,1000.);
#38=FACE_BOUND('',#53,.T.);
#39=FACE_BOUND('',#55,.T.);
#40=FACE_BOUND('',#58,.T.);
#41=FACE_BOUND('',#59,.T.);
#42=FACE_BOUND('',#61,.T.);
#43=FACE_BOUND('',#62,.T.);
#44=FACE_OUTER_BOUND('',#52,.T.);
#45=FACE_OUTER_BOUND('',#54,.T.);
#46=FACE_OUTER_BOUND('',#56,.T.);
#47=FACE_OUTER_BOUND('',#57,.T.);
#48=FACE_OUTER_BOUND('',#60,.T.);
#49=FACE_OUTER_BOUND('',#63,.T.);
#50=FACE_OUTER_BOUND('',#64,.T.);
#51=FACE_OUTER_BOUND('',#65,.T.);
#52=EDGE_LOOP('',(#102));
#53=EDGE_LOOP('',(#103));
#54=EDGE_LOOP('',(#104));
#55=EDGE_LOOP('',(#105));
#56=EDGE_LOOP('',(#106,#107,#108,#109));
#57=EDGE_LOOP('',(#110,#111,#112,#113));
#58=EDGE_LOOP('',(#114));
#59=EDGE_LOOP('',(#115));
#60=EDGE_LOOP('',(#116,#117,#118,#119));
#61=EDGE_LOOP('',(#120));
#62=EDGE_LOOP('',(#121));
#63=EDGE_LOOP('',(#122,#123,#124,#125));
#64=EDGE_LOOP('',(#126,#127,#128,#129));
#65=EDGE_LOOP('',(#130,#131,#132,#133));
#66=CIRCLE('',#155,6.75000000000001);
#67=CIRCLE('',#156,6.75000000000001);
#68=CIRCLE('',#158,40.15);
#69=CIRCLE('',#159,40.15);
#70=CIRCLE('',#161,47.65);
#71=CIRCLE('',#162,47.65);
#72=CIRCLE('',#164,20.7);
#73=CIRCLE('',#166,20.7);
#74=VERTEX_POINT('',#214);
#75=VERTEX_POINT('',#216);
#76=VERTEX_POINT('',#219);
#77=VERTEX_POINT('',#221);
#78=VERTEX_POINT('',#224);
#79=VERTEX_POINT('',#225);
#80=VERTEX_POINT('',#227);
#81=VERTEX_POINT('',#229);
#82=VERTEX_POINT('',#233);
#83=VERTEX_POINT('',#235);
#84=VERTEX_POINT('',#239);
#85=VERTEX_POINT('',#241);
#86=EDGE_CURVE('',#74,#74,#66,.T.);
#87=EDGE_CURVE('',#75,#75,#67,.T.);
#88=EDGE_CURVE('',#76,#76,#68,.T.);
#89=EDGE_CURVE('',#77,#77,#69,.T.);
#90=EDGE_CURVE('',#78,#79,#70,.T.);
#91=EDGE_CURVE('',#78,#80,#22,.T.);
#92=EDGE_CURVE('',#80,#81,#71,.T.);
#93=EDGE_CURVE('',#79,#81,#23,.T.);
#94=EDGE_CURVE('',#79,#82,#24,.T.);
#95=EDGE_CURVE('',#82,#83,#72,.T.);
#96=EDGE_CURVE('',#83,#78,#25,.T.);
#97=EDGE_CURVE('',#84,#80,#26,.T.);
#98=EDGE_CURVE('',#85,#84,#73,.T.);
#99=EDGE_CURVE('',#81,#85,#27,.T.);
#100=EDGE_CURVE('',#82,#85,#28,.T.);
#101=EDGE_CURVE('',#83,#84,#29,.T.);
#102=ORIENTED_EDGE('',*,*,#86,.T.);
#103=ORIENTED_EDGE('',*,*,#87,.F.);
#104=ORIENTED_EDGE('',*,*,#88,.T.);
#105=ORIENTED_EDGE('',*,*,#89,.F.);
#106=ORIENTED_EDGE('',*,*,#90,.F.);
#107=ORIENTED_EDGE('',*,*,#91,.T.);
#108=ORIENTED_EDGE('',*,*,#92,.T.);
#109=ORIENTED_EDGE('',*,*,#93,.F.);
#110=ORIENTED_EDGE('',*,*,#90,.T.);
#111=ORIENTED_EDGE('',*,*,#94,.T.);
#112=ORIENTED_EDGE('',*,*,#95,.T.);
#113=ORIENTED_EDGE('',*,*,#96,.T.);
#114=ORIENTED_EDGE('',*,*,#86,.F.);
#115=ORIENTED_EDGE('',*,*,#88,.F.);
#116=ORIENTED_EDGE('',*,*,#92,.F.);
#117=ORIENTED_EDGE('',*,*,#97,.F.);
#118=ORIENTED_EDGE('',*,*,#98,.F.);
#119=ORIENTED_EDGE('',*,*,#99,.F.);
#120=ORIENTED_EDGE('',*,*,#89,.T.);
#121=ORIENTED_EDGE('',*,*,#87,.T.);
#122=ORIENTED_EDGE('',*,*,#99,.T.);
#123=ORIENTED_EDGE('',*,*,#100,.F.);
#124=ORIENTED_EDGE('',*,*,#94,.F.);
#125=ORIENTED_EDGE('',*,*,#93,.T.);
#126=ORIENTED_EDGE('',*,*,#98,.T.);
#127=ORIENTED_EDGE('',*,*,#101,.F.);
#128=ORIENTED_EDGE('',*,*,#95,.F.);
#129=ORIENTED_EDGE('',*,*,#100,.T.);
#130=ORIENTED_EDGE('',*,*,#97,.T.);
#131=ORIENTED_EDGE('',*,*,#91,.F.);
#132=ORIENTED_EDGE('',*,*,#96,.F.);
#133=ORIENTED_EDGE('',*,*,#101,.T.);
#134=CYLINDRICAL_SURFACE('',#154,6.75000000000001);
#135=CYLINDRICAL_SURFACE('',#157,40.15);
#136=CYLINDRICAL_SURFACE('',#160,47.65);
#137=CYLINDRICAL_SURFACE('',#168,20.7);
#138=ADVANCED_FACE('',(#44,#38),#134,.F.);
#139=ADVANCED_FACE('',(#45,#39),#135,.F.);
#140=ADVANCED_FACE('',(#46),#136,.T.);
#141=ADVANCED_FACE('',(#47,#40,#41),#18,.T.);
#142=ADVANCED_FACE('',(#48,#42,#43),#19,.F.);
#143=ADVANCED_FACE('',(#49),#20,.F.);
#144=ADVANCED_FACE('',(#50),#137,.T.);
#145=ADVANCED_FACE('',(#51),#21,.F.);
#146=CLOSED_SHELL('',(#138,#139,#140,#141,#142,#143,#144,#145));
#147=DATE_TIME_ROLE('creation_date');
#148=APPLIED_DATE_AND_TIME_ASSIGNMENT(#149,#147,(#260));
#149=DATE_AND_TIME(#150,#151);
#150=CALENDAR_DATE(2020,27,10);
#151=LOCAL_TIME(23,0,0.,#152);
#152=COORDINATED_UNIVERSAL_TIME_OFFSET(0,0,.BEHIND.);
#153=AXIS2_PLACEMENT_3D('placement',#212,#170,#171);
#154=AXIS2_PLACEMENT_3D('',#213,#172,#173);
#155=AXIS2_PLACEMENT_3D('',#215,#174,#175);
#156=AXIS2_PLACEMENT_3D('',#217,#176,#177);
#157=AXIS2_PLACEMENT_3D('',#218,#178,#179);
#158=AXIS2_PLACEMENT_3D('',#220,#180,#181);
#159=AXIS2_PLACEMENT_3D('',#222,#182,#183);
#160=AXIS2_PLACEMENT_3D('',#223,#184,#185);
#161=AXIS2_PLACEMENT_3D('',#226,#186,#187);
#162=AXIS2_PLACEMENT_3D('',#230,#189,#190);
#163=AXIS2_PLACEMENT_3D('',#232,#192,#193);
#164=AXIS2_PLACEMENT_3D('',#236,#195,#196);
#165=AXIS2_PLACEMENT_3D('',#238,#198,#199);
#166=AXIS2_PLACEMENT_3D('',#242,#201,#202);
#167=AXIS2_PLACEMENT_3D('',#244,#204,#205);
#168=AXIS2_PLACEMENT_3D('',#246,#207,#208);
#169=AXIS2_PLACEMENT_3D('',#248,#210,#211);
#170=DIRECTION('axis',(0.,0.,1.));
#171=DIRECTION('refdir',(1.,0.,0.));
#172=DIRECTION('center_axis',(0.,-1.,0.));
#173=DIRECTION('ref_axis',(0.,0.,-1.));
#174=DIRECTION('center_axis',(0.,1.,0.));
#175=DIRECTION('ref_axis',(0.,0.,1.));
#176=DIRECTION('center_axis',(0.,1.,0.));
#177=DIRECTION('ref_axis',(0.,0.,1.));
#178=DIRECTION('center_axis',(0.,-1.,0.));
#179=DIRECTION('ref_axis',(0.,0.,-1.));
#180=DIRECTION('center_axis',(0.,1.,0.));
#181=DIRECTION('ref_axis',(0.,0.,1.));
#182=DIRECTION('center_axis',(0.,1.,0.));
#183=DIRECTION('ref_axis',(0.,0.,1.));
#184=DIRECTION('center_axis',(0.,-1.,0.));
#185=DIRECTION('ref_axis',(0.,0.,-1.));
#186=DIRECTION('center_axis',(0.,1.,0.));
#187=DIRECTION('ref_axis',(0.,0.,1.));
#188=DIRECTION('',(0.,-1.,0.));
#189=DIRECTION('center_axis',(0.,1.,0.));
#190=DIRECTION('ref_axis',(0.,0.,1.));
#191=DIRECTION('',(0.,-1.,0.));
#192=DIRECTION('center_axis',(0.,1.,0.));
#193=DIRECTION('ref_axis',(0.,0.,1.));
#194=DIRECTION('',(2.42880791049265E-16,0.,1.));
#195=DIRECTION('center_axis',(0.,1.,0.));
#196=DIRECTION('ref_axis',(0.,0.,1.));
#197=DIRECTION('',(0.,0.,-1.));
#198=DIRECTION('center_axis',(0.,1.,0.));
#199=DIRECTION('ref_axis',(0.,0.,1.));
#200=DIRECTION('',(0.,0.,-1.));
#201=DIRECTION('center_axis',(0.,1.,0.));
#202=DIRECTION('ref_axis',(0.,0.,1.));
#203=DIRECTION('',(2.42880791049265E-16,0.,1.));
#204=DIRECTION('center_axis',(1.,0.,-2.42880791049265E-16));
#205=DIRECTION('ref_axis',(0.,0.,-1.));
#206=DIRECTION('',(0.,-1.,0.));
#207=DIRECTION('center_axis',(0.,-1.,0.));
#208=DIRECTION('ref_axis',(0.,0.,-1.));
#209=DIRECTION('',(0.,-1.,0.));
#210=DIRECTION('center_axis',(-1.,0.,0.));
#211=DIRECTION('ref_axis',(0.,0.,1.));
#212=CARTESIAN_POINT('',(0.,0.,0.));
#213=CARTESIAN_POINT('Origin',(0.,1.5,73.));
#214=CARTESIAN_POINT('',(0.,1.5,66.25));
#215=CARTESIAN_POINT('Origin',(0.,1.5,73.));
#216=CARTESIAN_POINT('',(0.,0.,66.25));
#217=CARTESIAN_POINT('Origin',(0.,0.,73.));
#218=CARTESIAN_POINT('Origin',(0.,1.5,0.));
#219=CARTESIAN_POINT('',(0.,1.5,-40.15));
#220=CARTESIAN_POINT('Origin',(0.,1.5,0.));
#221=CARTESIAN_POINT('',(0.,0.,-40.15));
#222=CARTESIAN_POINT('Origin',(0.,0.,0.));
#223=CARTESIAN_POINT('Origin',(0.,1.5,0.));
#224=CARTESIAN_POINT('',(20.65,1.5,42.9429854574644));
#225=CARTESIAN_POINT('',(-20.65,1.5,42.9429854574644));
#226=CARTESIAN_POINT('Origin',(0.,1.5,0.));
#227=CARTESIAN_POINT('',(20.65,0.,42.9429854574644));
#228=CARTESIAN_POINT('',(20.65,1.5,42.9429854574644));
#229=CARTESIAN_POINT('',(-20.65,0.,42.9429854574644));
#230=CARTESIAN_POINT('Origin',(0.,0.,0.));
#231=CARTESIAN_POINT('',(-20.65,1.5,42.9429854574644));
#232=CARTESIAN_POINT('Origin',(0.,1.5,0.));
#233=CARTESIAN_POINT('',(-20.65,1.5,71.5121196155452));
#234=CARTESIAN_POINT('',(-20.65,1.5,42.9429854574644));
#235=CARTESIAN_POINT('',(20.65,1.5,71.5121196155452));
#236=CARTESIAN_POINT('Origin',(1.97168134662724E-14,1.5,72.95));
#237=CARTESIAN_POINT('',(20.65,1.5,42.9429854574644));
#238=CARTESIAN_POINT('Origin',(0.,0.,0.));
#239=CARTESIAN_POINT('',(20.65,0.,71.5121196155452));
#240=CARTESIAN_POINT('',(20.65,0.,42.9429854574644));
#241=CARTESIAN_POINT('',(-20.65,0.,71.5121196155452));
#242=CARTESIAN_POINT('Origin',(1.97168134662724E-14,0.,72.95));
#243=CARTESIAN_POINT('',(-20.65,0.,42.9429854574644));
#244=CARTESIAN_POINT('Origin',(-20.65,1.5,42.9429854574644));
#245=CARTESIAN_POINT('',(-20.65,1.5,71.5121196155452));
#246=CARTESIAN_POINT('Origin',(1.97168134662724E-14,1.5,72.95));
#247=CARTESIAN_POINT('',(20.65,1.5,71.5121196155452));
#248=CARTESIAN_POINT('Origin',(20.65,1.5,42.9429854574644));
#249=UNCERTAINTY_MEASURE_WITH_UNIT(LENGTH_MEASURE(0.01),#253,
'DISTANCE_ACCURACY_VALUE',
'Maximum model space distance between geometric entities at asserted c
onnectivities');
#250=UNCERTAINTY_MEASURE_WITH_UNIT(LENGTH_MEASURE(1.E-6),#253,
'DISTANCE_ACCURACY_VALUE',
'Maximum model space distance between geometric entities at asserted c
onnectivities');
#251=(
GEOMETRIC_REPRESENTATION_CONTEXT(3)
GLOBAL_UNCERTAINTY_ASSIGNED_CONTEXT((#249))
GLOBAL_UNIT_ASSIGNED_CONTEXT((#253,#255,#254))
REPRESENTATION_CONTEXT('','3D')
);
#252=(
GEOMETRIC_REPRESENTATION_CONTEXT(3)
GLOBAL_UNCERTAINTY_ASSIGNED_CONTEXT((#250))
GLOBAL_UNIT_ASSIGNED_CONTEXT((#253,#12,#254))
REPRESENTATION_CONTEXT('','3D')
);
#253=(
LENGTH_UNIT()
NAMED_UNIT(*)
SI_UNIT(.MILLI.,.METRE.)
);
#254=(
NAMED_UNIT(*)
SI_UNIT($,.STERADIAN.)
SOLID_ANGLE_UNIT()
);
#255=(
NAMED_UNIT(*)
PLANE_ANGLE_UNIT()
SI_UNIT($,.RADIAN.)
);
#256=SHAPE_DEFINITION_REPRESENTATION(#257,#258);
#257=PRODUCT_DEFINITION_SHAPE('',$,#260);
#258=SHAPE_REPRESENTATION('',(#153),#251);
#259=PRODUCT_DEFINITION_CONTEXT('part definition',#264,'design');
#260=PRODUCT_DEFINITION('01567294','Erdungsfahne-05-BT-0001-01567294',#261,
#259);
#261=PRODUCT_DEFINITION_FORMATION('',$,#266);
#262=PRODUCT_RELATED_PRODUCT_CATEGORY(
'Erdungsfahne-05-BT-0001-01567294','Erdungsfahne-05-BT-0001-01567294',(#266));
#263=APPLICATION_PROTOCOL_DEFINITION('international standard',
'automotive_design',2009,#264);
#264=APPLICATION_CONTEXT(
'Core Data for Automotive Mechanical Design Process');
#265=PRODUCT_CONTEXT('part definition',#264,'mechanical');
#266=PRODUCT('01567294','Erdungsfahne-05-BT-0001-01567294',
'Erdungsfahne M80',(#265));
#267=PRESENTATION_STYLE_ASSIGNMENT((#268));
#268=SURFACE_STYLE_USAGE(.BOTH.,#269);
#269=SURFACE_SIDE_STYLE('',(#270));
#270=SURFACE_STYLE_FILL_AREA(#271);
#271=FILL_AREA_STYLE('',(#272));
#272=FILL_AREA_STYLE_COLOUR('',#273);
#273=COLOUR_RGB('',0.956862745098039,0.956862745098039,0.956862745098039);
ENDSEC;
END-ISO-10303-21;
