ISO-10303-21;
HEADER;
/* Generated by software containing ST-Developer
 * from STEP Tools, Inc. (www.steptools.com) 
 */

FILE_DESCRIPTION(
/* description */ ('Blindstopfen PG 21 (13-18)'),
/* implementation_level */ '2;1');

FILE_NAME(
/* name */ 
'Z:\\Inventor\\Blindstopfen\\Blindstopfen-DS\\72007421DS-RST.stp',
/* time_stamp */ '2022-02-08T15:19:20+01:00',
/* author */ ('sl'),
/* organization */ (''),
/* preprocessor_version */ 'ST-DEVELOPER v16.5',
/* originating_system */ 'Autodesk Inventor 2017',
/* authorisation */ '');

FILE_SCHEMA (('AUTOMOTIVE_DESIGN { 1 0 10303 214 3 1 1 }'));
ENDSEC;

DATA;
#10=MECHANICAL_DESIGN_GEOMETRIC_PRESENTATION_REPRESENTATION('',(#13),#285);
#11=SHAPE_REPRESENTATION_RELATIONSHIP('SRR','None',#294,#12);
#12=ADVANCED_BREP_SHAPE_REPRESENTATION('',(#14),#284);
#13=STYLED_ITEM('',(#303),#14);
#14=MANIFOLD_SOLID_BREP('Volumenk\X\F6rper1',#127);
#15=(
BOUNDED_CURVE()
B_SPLINE_CURVE(2,(#236,#237,#238),.UNSPECIFIED.,.F.,.F.)
B_SPLINE_CURVE_WITH_KNOTS((3,3),(1.59627743731919E-15,1.5707963267949),
 .UNSPECIFIED.)
CURVE()
GEOMETRIC_REPRESENTATION_ITEM()
RATIONAL_B_SPLINE_CURVE((1.,0.707106781186547,1.))
REPRESENTATION_ITEM('')
);
#16=(
BOUNDED_CURVE()
B_SPLINE_CURVE(2,(#275,#276,#277),.UNSPECIFIED.,.F.,.F.)
B_SPLINE_CURVE_WITH_KNOTS((3,3),(0.147111226378395,1.56976623102274),
 .UNSPECIFIED.)
CURVE()
GEOMETRIC_REPRESENTATION_ITEM()
RATIONAL_B_SPLINE_CURVE((1.,0.75749589718374,1.))
REPRESENTATION_ITEM('')
);
#17=(
BOUNDED_SURFACE()
B_SPLINE_SURFACE(2,2,((#208,#209,#210,#211,#212,#213,#214,#215,#216),(#217,
#218,#219,#220,#221,#222,#223,#224,#225),(#226,#227,#228,#229,#230,#231,
#232,#233,#234)),.UNSPECIFIED.,.F.,.T.,.F.)
B_SPLINE_SURFACE_WITH_KNOTS((3,3),(3,2,2,2,3),(-1.5707963267949,-1.59627743731919E-15),
(-3.14159265358979,-1.5707963267949,0.,1.5707963267949,3.14159265358979),
 .UNSPECIFIED.)
GEOMETRIC_REPRESENTATION_ITEM()
RATIONAL_B_SPLINE_SURFACE(((1.,0.707106781186548,1.,0.707106781186548,1.,
0.707106781186548,1.,0.707106781186548,1.),(0.707106781186547,0.5,0.707106781186547,
0.5,0.707106781186547,0.5,0.707106781186547,0.5,0.707106781186547),(1.,
0.707106781186548,1.,0.707106781186548,1.,0.707106781186548,1.,0.707106781186548,
1.)))
REPRESENTATION_ITEM('')
SURFACE()
);
#18=(
BOUNDED_SURFACE()
B_SPLINE_SURFACE(2,2,((#243,#244,#245,#246,#247,#248,#249,#250,#251),(#252,
#253,#254,#255,#256,#257,#258,#259,#260),(#261,#262,#263,#264,#265,#266,
#267,#268,#269)),.UNSPECIFIED.,.F.,.T.,.F.)
B_SPLINE_SURFACE_WITH_KNOTS((3,3),(3,2,2,2,3),(-1.56976623102274,-0.147111226378395),
(-3.14159265358979,-1.5707963267949,0.,1.5707963267949,3.14159265358979),
 .UNSPECIFIED.)
GEOMETRIC_REPRESENTATION_ITEM()
RATIONAL_B_SPLINE_SURFACE(((1.,0.707106781186548,1.,0.707106781186548,1.,
0.707106781186548,1.,0.707106781186548,1.),(0.75749589718374,0.53563048561961,
0.75749589718374,0.53563048561961,0.75749589718374,0.53563048561961,0.75749589718374,
0.53563048561961,0.75749589718374),(1.,0.707106781186548,1.,0.707106781186548,
1.,0.707106781186548,1.,0.707106781186548,1.)))
REPRESENTATION_ITEM('')
SURFACE()
);
#19=CYLINDRICAL_SURFACE('',#142,5.34999999999999);
#20=CYLINDRICAL_SURFACE('',#152,6.99999999999999);
#21=TOROIDAL_SURFACE('',#140,5.4,0.0500000000000008);
#22=PLANE('',#138);
#23=PLANE('',#147);
#24=PLANE('',#150);
#25=FACE_BOUND('',#41,.T.);
#26=FACE_BOUND('',#43,.T.);
#27=FACE_BOUND('',#45,.T.);
#28=FACE_BOUND('',#47,.T.);
#29=FACE_BOUND('',#52,.T.);
#30=FACE_BOUND('',#54,.T.);
#31=FACE_OUTER_BOUND('',#40,.T.);
#32=FACE_OUTER_BOUND('',#42,.T.);
#33=FACE_OUTER_BOUND('',#44,.T.);
#34=FACE_OUTER_BOUND('',#46,.T.);
#35=FACE_OUTER_BOUND('',#48,.T.);
#36=FACE_OUTER_BOUND('',#49,.T.);
#37=FACE_OUTER_BOUND('',#50,.T.);
#38=FACE_OUTER_BOUND('',#51,.T.);
#39=FACE_OUTER_BOUND('',#53,.T.);
#40=EDGE_LOOP('',(#91));
#41=EDGE_LOOP('',(#92));
#42=EDGE_LOOP('',(#93));
#43=EDGE_LOOP('',(#94));
#44=EDGE_LOOP('',(#95));
#45=EDGE_LOOP('',(#96));
#46=EDGE_LOOP('',(#97,#98));
#47=EDGE_LOOP('',(#99));
#48=EDGE_LOOP('',(#100,#101,#102,#103,#104,#105));
#49=EDGE_LOOP('',(#106,#107));
#50=EDGE_LOOP('',(#108,#109,#110,#111));
#51=EDGE_LOOP('',(#112,#113));
#52=EDGE_LOOP('',(#114));
#53=EDGE_LOOP('',(#115));
#54=EDGE_LOOP('',(#116));
#55=CIRCLE('',#136,6.7);
#56=CIRCLE('',#137,7.);
#57=CIRCLE('',#139,5.4);
#58=CIRCLE('',#141,5.35);
#59=CIRCLE('',#143,5.34999999999998);
#60=CIRCLE('',#144,5.34999999999998);
#61=CIRCLE('',#145,0.349999999999979);
#62=CIRCLE('',#146,0.349999999999979);
#63=CIRCLE('',#148,11.);
#64=CIRCLE('',#149,11.);
#65=CIRCLE('',#151,6.99999999999998);
#66=VERTEX_POINT('',#193);
#67=VERTEX_POINT('',#195);
#68=VERTEX_POINT('',#198);
#69=VERTEX_POINT('',#201);
#70=VERTEX_POINT('',#204);
#71=VERTEX_POINT('',#205);
#72=VERTEX_POINT('',#235);
#73=VERTEX_POINT('',#239);
#74=VERTEX_POINT('',#270);
#75=VERTEX_POINT('',#271);
#76=VERTEX_POINT('',#274);
#77=VERTEX_POINT('',#279);
#78=EDGE_CURVE('',#66,#66,#55,.T.);
#79=EDGE_CURVE('',#67,#67,#56,.T.);
#80=EDGE_CURVE('',#68,#68,#57,.T.);
#81=EDGE_CURVE('',#69,#69,#58,.T.);
#82=EDGE_CURVE('',#70,#71,#59,.T.);
#83=EDGE_CURVE('',#71,#70,#60,.T.);
#84=EDGE_CURVE('',#71,#72,#15,.T.);
#85=EDGE_CURVE('',#73,#72,#61,.T.);
#86=EDGE_CURVE('',#72,#73,#62,.T.);
#87=EDGE_CURVE('',#74,#75,#63,.T.);
#88=EDGE_CURVE('',#75,#74,#64,.T.);
#89=EDGE_CURVE('',#75,#76,#16,.T.);
#90=EDGE_CURVE('',#77,#77,#65,.T.);
#91=ORIENTED_EDGE('',*,*,#78,.F.);
#92=ORIENTED_EDGE('',*,*,#79,.T.);
#93=ORIENTED_EDGE('',*,*,#78,.T.);
#94=ORIENTED_EDGE('',*,*,#80,.F.);
#95=ORIENTED_EDGE('',*,*,#81,.F.);
#96=ORIENTED_EDGE('',*,*,#80,.T.);
#97=ORIENTED_EDGE('',*,*,#82,.F.);
#98=ORIENTED_EDGE('',*,*,#83,.F.);
#99=ORIENTED_EDGE('',*,*,#81,.T.);
#100=ORIENTED_EDGE('',*,*,#82,.T.);
#101=ORIENTED_EDGE('',*,*,#84,.T.);
#102=ORIENTED_EDGE('',*,*,#85,.F.);
#103=ORIENTED_EDGE('',*,*,#86,.F.);
#104=ORIENTED_EDGE('',*,*,#84,.F.);
#105=ORIENTED_EDGE('',*,*,#83,.T.);
#106=ORIENTED_EDGE('',*,*,#85,.T.);
#107=ORIENTED_EDGE('',*,*,#86,.T.);
#108=ORIENTED_EDGE('',*,*,#87,.F.);
#109=ORIENTED_EDGE('',*,*,#88,.F.);
#110=ORIENTED_EDGE('',*,*,#89,.T.);
#111=ORIENTED_EDGE('',*,*,#89,.F.);
#112=ORIENTED_EDGE('',*,*,#87,.T.);
#113=ORIENTED_EDGE('',*,*,#88,.T.);
#114=ORIENTED_EDGE('',*,*,#90,.F.);
#115=ORIENTED_EDGE('',*,*,#79,.F.);
#116=ORIENTED_EDGE('',*,*,#90,.T.);
#117=CONICAL_SURFACE('',#135,6.85,45.);
#118=ADVANCED_FACE('',(#31,#25),#117,.T.);
#119=ADVANCED_FACE('',(#32,#26),#22,.T.);
#120=ADVANCED_FACE('',(#33,#27),#21,.T.);
#121=ADVANCED_FACE('',(#34,#28),#19,.F.);
#122=ADVANCED_FACE('',(#35),#17,.T.);
#123=ADVANCED_FACE('',(#36),#23,.T.);
#124=ADVANCED_FACE('',(#37),#18,.F.);
#125=ADVANCED_FACE('',(#38,#29),#24,.T.);
#126=ADVANCED_FACE('',(#39,#30),#20,.T.);
#127=CLOSED_SHELL('',(#118,#119,#120,#121,#122,#123,#124,#125,#126));
#128=DATE_TIME_ROLE('creation_date');
#129=APPLIED_DATE_AND_TIME_ASSIGNMENT(#130,#128,(#296));
#130=DATE_AND_TIME(#131,#132);
#131=CALENDAR_DATE(2022,7,2);
#132=LOCAL_TIME(23,0,0.,#133);
#133=COORDINATED_UNIVERSAL_TIME_OFFSET(0,0,.BEHIND.);
#134=AXIS2_PLACEMENT_3D('placement',#191,#153,#154);
#135=AXIS2_PLACEMENT_3D('',#192,#155,#156);
#136=AXIS2_PLACEMENT_3D('',#194,#157,#158);
#137=AXIS2_PLACEMENT_3D('',#196,#159,#160);
#138=AXIS2_PLACEMENT_3D('',#197,#161,#162);
#139=AXIS2_PLACEMENT_3D('',#199,#163,#164);
#140=AXIS2_PLACEMENT_3D('',#200,#165,#166);
#141=AXIS2_PLACEMENT_3D('',#202,#167,#168);
#142=AXIS2_PLACEMENT_3D('',#203,#169,#170);
#143=AXIS2_PLACEMENT_3D('',#206,#171,#172);
#144=AXIS2_PLACEMENT_3D('',#207,#173,#174);
#145=AXIS2_PLACEMENT_3D('',#240,#175,#176);
#146=AXIS2_PLACEMENT_3D('',#241,#177,#178);
#147=AXIS2_PLACEMENT_3D('',#242,#179,#180);
#148=AXIS2_PLACEMENT_3D('',#272,#181,#182);
#149=AXIS2_PLACEMENT_3D('',#273,#183,#184);
#150=AXIS2_PLACEMENT_3D('',#278,#185,#186);
#151=AXIS2_PLACEMENT_3D('',#280,#187,#188);
#152=AXIS2_PLACEMENT_3D('',#281,#189,#190);
#153=DIRECTION('axis',(0.,0.,1.));
#154=DIRECTION('refdir',(1.,0.,0.));
#155=DIRECTION('center_axis',(-1.,1.41340844077687E-15,0.));
#156=DIRECTION('ref_axis',(1.42742960308949E-15,1.,0.));
#157=DIRECTION('center_axis',(1.,-1.41340844077687E-15,0.));
#158=DIRECTION('ref_axis',(0.,0.,-1.));
#159=DIRECTION('center_axis',(1.,-1.41340844077687E-15,0.));
#160=DIRECTION('ref_axis',(0.,0.,-1.));
#161=DIRECTION('center_axis',(1.,-1.41340844077687E-15,0.));
#162=DIRECTION('ref_axis',(0.,0.,-1.));
#163=DIRECTION('center_axis',(1.,-1.41340844077687E-15,0.));
#164=DIRECTION('ref_axis',(0.,0.,-1.));
#165=DIRECTION('center_axis',(1.,-1.41340844077687E-15,0.));
#166=DIRECTION('ref_axis',(0.,0.,-1.));
#167=DIRECTION('center_axis',(1.,-1.41340844077687E-15,0.));
#168=DIRECTION('ref_axis',(0.,0.,-1.));
#169=DIRECTION('center_axis',(1.,-1.41340844077687E-15,0.));
#170=DIRECTION('ref_axis',(1.42742960308949E-15,1.,0.));
#171=DIRECTION('center_axis',(1.,-1.41340844077687E-15,0.));
#172=DIRECTION('ref_axis',(0.,0.,-1.));
#173=DIRECTION('center_axis',(1.,-1.41340844077687E-15,0.));
#174=DIRECTION('ref_axis',(0.,0.,-1.));
#175=DIRECTION('center_axis',(1.,-1.41340844077687E-15,0.));
#176=DIRECTION('ref_axis',(0.,0.,-1.));
#177=DIRECTION('center_axis',(1.,-1.41340844077687E-15,0.));
#178=DIRECTION('ref_axis',(0.,0.,-1.));
#179=DIRECTION('center_axis',(1.,-1.41340844077687E-15,0.));
#180=DIRECTION('ref_axis',(0.,0.,-1.));
#181=DIRECTION('center_axis',(1.,-1.41340844077687E-15,0.));
#182=DIRECTION('ref_axis',(0.,0.,-1.));
#183=DIRECTION('center_axis',(1.,-1.41340844077687E-15,0.));
#184=DIRECTION('ref_axis',(0.,0.,-1.));
#185=DIRECTION('center_axis',(1.,-1.41340844077687E-15,0.));
#186=DIRECTION('ref_axis',(0.,0.,-1.));
#187=DIRECTION('center_axis',(1.,-1.41340844077687E-15,0.));
#188=DIRECTION('ref_axis',(0.,0.,-1.));
#189=DIRECTION('center_axis',(1.,-1.41340844077687E-15,0.));
#190=DIRECTION('ref_axis',(1.42742960308949E-15,1.,0.));
#191=CARTESIAN_POINT('',(0.,0.,0.));
#192=CARTESIAN_POINT('Origin',(-0.15000000000001,2.12011266116545E-16,0.));
#193=CARTESIAN_POINT('',(0.,6.7,0.));
#194=CARTESIAN_POINT('Origin',(-9.99200722162641E-15,1.38050658413677E-29,
0.));
#195=CARTESIAN_POINT('',(-0.3,7.,0.));
#196=CARTESIAN_POINT('Origin',(-0.30000000000001,4.24022532233076E-16,0.));
#197=CARTESIAN_POINT('Origin',(0.,5.4,0.));
#198=CARTESIAN_POINT('',(0.,5.4,0.));
#199=CARTESIAN_POINT('Origin',(-7.7715611723761E-15,9.86076131526265E-30,
0.));
#200=CARTESIAN_POINT('Origin',(-0.0500000000000078,7.06704220388536E-17,
0.));
#201=CARTESIAN_POINT('',(-0.0500000000000001,5.35,0.));
#202=CARTESIAN_POINT('Origin',(-0.0500000000000078,7.06704220388536E-17,
0.));
#203=CARTESIAN_POINT('Origin',(-7.02500000000001,9.92919429645755E-15,0.));
#204=CARTESIAN_POINT('',(-14.,5.35,0.));
#205=CARTESIAN_POINT('',(-14.,1.97877181708763E-14,5.34999999999998));
#206=CARTESIAN_POINT('Origin',(-14.,1.97877181708763E-14,0.));
#207=CARTESIAN_POINT('Origin',(-14.,1.97877181708763E-14,0.));
#208=CARTESIAN_POINT('Ctrl Pts',(-19.,2.68547603747606E-14,0.349999999999979));
#209=CARTESIAN_POINT('Ctrl Pts',(-19.,-0.349999999999953,0.349999999999979));
#210=CARTESIAN_POINT('Ctrl Pts',(-19.,-0.349999999999953,0.));
#211=CARTESIAN_POINT('Ctrl Pts',(-19.,-0.349999999999953,-0.349999999999979));
#212=CARTESIAN_POINT('Ctrl Pts',(-19.,2.68547603747606E-14,-0.349999999999979));
#213=CARTESIAN_POINT('Ctrl Pts',(-19.,0.350000000000006,-0.349999999999979));
#214=CARTESIAN_POINT('Ctrl Pts',(-19.,0.350000000000006,0.));
#215=CARTESIAN_POINT('Ctrl Pts',(-19.,0.350000000000006,0.349999999999979));
#216=CARTESIAN_POINT('Ctrl Pts',(-19.,2.68547603747606E-14,0.349999999999979));
#217=CARTESIAN_POINT('Ctrl Pts',(-19.,2.68547603747606E-14,5.34999999999998));
#218=CARTESIAN_POINT('Ctrl Pts',(-19.,-5.34999999999995,5.34999999999998));
#219=CARTESIAN_POINT('Ctrl Pts',(-19.,-5.34999999999995,0.));
#220=CARTESIAN_POINT('Ctrl Pts',(-19.,-5.34999999999995,-5.34999999999998));
#221=CARTESIAN_POINT('Ctrl Pts',(-19.,2.68547603747606E-14,-5.34999999999998));
#222=CARTESIAN_POINT('Ctrl Pts',(-19.,5.35,-5.34999999999998));
#223=CARTESIAN_POINT('Ctrl Pts',(-19.,5.35,0.));
#224=CARTESIAN_POINT('Ctrl Pts',(-19.,5.35,5.34999999999998));
#225=CARTESIAN_POINT('Ctrl Pts',(-19.,2.68547603747606E-14,5.34999999999998));
#226=CARTESIAN_POINT('Ctrl Pts',(-14.,1.97877181708763E-14,5.34999999999998));
#227=CARTESIAN_POINT('Ctrl Pts',(-14.,-5.34999999999996,5.34999999999998));
#228=CARTESIAN_POINT('Ctrl Pts',(-14.,-5.34999999999997,0.));
#229=CARTESIAN_POINT('Ctrl Pts',(-14.,-5.34999999999996,-5.34999999999998));
#230=CARTESIAN_POINT('Ctrl Pts',(-14.,1.97877181708763E-14,-5.34999999999998));
#231=CARTESIAN_POINT('Ctrl Pts',(-14.,5.35,-5.34999999999998));
#232=CARTESIAN_POINT('Ctrl Pts',(-14.,5.35,0.));
#233=CARTESIAN_POINT('Ctrl Pts',(-14.,5.35,5.34999999999998));
#234=CARTESIAN_POINT('Ctrl Pts',(-14.,1.97877181708763E-14,5.34999999999998));
#235=CARTESIAN_POINT('',(-19.,2.68547603747606E-14,0.349999999999979));
#236=CARTESIAN_POINT('Ctrl Pts',(-14.,1.97877181708763E-14,5.34999999999998));
#237=CARTESIAN_POINT('Ctrl Pts',(-19.,2.68547603747606E-14,5.34999999999998));
#238=CARTESIAN_POINT('Ctrl Pts',(-19.,2.68547603747606E-14,0.349999999999979));
#239=CARTESIAN_POINT('',(-19.,0.350000000000006,0.));
#240=CARTESIAN_POINT('Origin',(-19.,2.68547603747606E-14,0.));
#241=CARTESIAN_POINT('Origin',(-19.,2.68547603747606E-14,0.));
#242=CARTESIAN_POINT('Origin',(-19.,2.6853519408121E-14,0.));
#243=CARTESIAN_POINT('Ctrl Pts',(-23.5,3.32150983582565E-14,7.84962372879505E-16));
#244=CARTESIAN_POINT('Ctrl Pts',(-23.5,3.2430135985377E-14,7.84962372879505E-16));
#245=CARTESIAN_POINT('Ctrl Pts',(-23.5,3.2430135985377E-14,0.));
#246=CARTESIAN_POINT('Ctrl Pts',(-23.5,3.2430135985377E-14,-7.84962372879505E-16));
#247=CARTESIAN_POINT('Ctrl Pts',(-23.5,3.32150983582565E-14,-7.84962372879505E-16));
#248=CARTESIAN_POINT('Ctrl Pts',(-23.5,3.4000060731136E-14,-7.84962372879505E-16));
#249=CARTESIAN_POINT('Ctrl Pts',(-23.5,3.4000060731136E-14,0.));
#250=CARTESIAN_POINT('Ctrl Pts',(-23.5,3.4000060731136E-14,7.84962372879505E-16));
#251=CARTESIAN_POINT('Ctrl Pts',(-23.5,3.32150983582565E-14,7.84962372879505E-16));
#252=CARTESIAN_POINT('Ctrl Pts',(-23.4901175276908,3.3201130388479E-14,
9.59373786482389));
#253=CARTESIAN_POINT('Ctrl Pts',(-23.4901175276908,-9.59373786482385,9.59373786482389));
#254=CARTESIAN_POINT('Ctrl Pts',(-23.4901175276908,-9.59373786482386,-3.94430452610506E-30));
#255=CARTESIAN_POINT('Ctrl Pts',(-23.4901175276908,-9.59373786482385,-9.59373786482389));
#256=CARTESIAN_POINT('Ctrl Pts',(-23.4901175276908,3.3201130388479E-14,
-9.59373786482389));
#257=CARTESIAN_POINT('Ctrl Pts',(-23.4901175276908,9.59373786482392,-9.59373786482389));
#258=CARTESIAN_POINT('Ctrl Pts',(-23.4901175276908,9.59373786482392,3.94430452610506E-30));
#259=CARTESIAN_POINT('Ctrl Pts',(-23.4901175276908,9.59373786482392,9.59373786482389));
#260=CARTESIAN_POINT('Ctrl Pts',(-23.4901175276908,3.3201130388479E-14,
9.59373786482389));
#261=CARTESIAN_POINT('Ctrl Pts',(-14.,1.97877181708763E-14,11.));
#262=CARTESIAN_POINT('Ctrl Pts',(-14.,-11.,11.));
#263=CARTESIAN_POINT('Ctrl Pts',(-14.,-11.,3.94430452610506E-30));
#264=CARTESIAN_POINT('Ctrl Pts',(-14.,-11.,-11.));
#265=CARTESIAN_POINT('Ctrl Pts',(-14.,1.97877181708763E-14,-11.));
#266=CARTESIAN_POINT('Ctrl Pts',(-14.,11.,-11.));
#267=CARTESIAN_POINT('Ctrl Pts',(-14.,11.,-3.94430452610506E-30));
#268=CARTESIAN_POINT('Ctrl Pts',(-14.,11.,11.));
#269=CARTESIAN_POINT('Ctrl Pts',(-14.,1.97877181708763E-14,11.));
#270=CARTESIAN_POINT('',(-14.,11.,0.));
#271=CARTESIAN_POINT('',(-14.,1.97877181708763E-14,11.));
#272=CARTESIAN_POINT('Origin',(-14.,1.97877181708763E-14,0.));
#273=CARTESIAN_POINT('Origin',(-14.,1.97877181708763E-14,0.));
#274=CARTESIAN_POINT('',(-23.5,-6.2360168689144E-15,0.));
#275=CARTESIAN_POINT('Ctrl Pts',(-14.,1.97877181708763E-14,11.));
#276=CARTESIAN_POINT('Ctrl Pts',(-23.4901175276908,3.3201130388479E-14,
9.59373786482389));
#277=CARTESIAN_POINT('Ctrl Pts',(-23.5,3.32150983582565E-14,7.84962372879505E-16));
#278=CARTESIAN_POINT('Origin',(-14.,7.,0.));
#279=CARTESIAN_POINT('',(-14.,7.,0.));
#280=CARTESIAN_POINT('Origin',(-14.,1.97877181708762E-14,0.));
#281=CARTESIAN_POINT('Origin',(-7.15000000000001,1.01058703515547E-14,0.));
#282=UNCERTAINTY_MEASURE_WITH_UNIT(LENGTH_MEASURE(0.01),#286,
'DISTANCE_ACCURACY_VALUE',
'Maximum model space distance between geometric entities at asserted c
onnectivities');
#283=UNCERTAINTY_MEASURE_WITH_UNIT(LENGTH_MEASURE(1.E-6),#286,
'DISTANCE_ACCURACY_VALUE',
'Maximum model space distance between geometric entities at asserted c
onnectivities');
#284=(
GEOMETRIC_REPRESENTATION_CONTEXT(3)
GLOBAL_UNCERTAINTY_ASSIGNED_CONTEXT((#282))
GLOBAL_UNIT_ASSIGNED_CONTEXT((#286,#289,#287))
REPRESENTATION_CONTEXT('','3D')
);
#285=(
GEOMETRIC_REPRESENTATION_CONTEXT(3)
GLOBAL_UNCERTAINTY_ASSIGNED_CONTEXT((#283))
GLOBAL_UNIT_ASSIGNED_CONTEXT((#286,#289,#287))
REPRESENTATION_CONTEXT('','3D')
);
#286=(
LENGTH_UNIT()
NAMED_UNIT(*)
SI_UNIT(.MILLI.,.METRE.)
);
#287=(
NAMED_UNIT(*)
SI_UNIT($,.STERADIAN.)
SOLID_ANGLE_UNIT()
);
#288=DIMENSIONAL_EXPONENTS(0.,0.,0.,0.,0.,0.,0.);
#289=(
CONVERSION_BASED_UNIT('degree',#291)
NAMED_UNIT(#288)
PLANE_ANGLE_UNIT()
);
#290=(
NAMED_UNIT(*)
PLANE_ANGLE_UNIT()
SI_UNIT($,.RADIAN.)
);
#291=PLANE_ANGLE_MEASURE_WITH_UNIT(PLANE_ANGLE_MEASURE(0.01745329252),#290);
#292=SHAPE_DEFINITION_REPRESENTATION(#293,#294);
#293=PRODUCT_DEFINITION_SHAPE('',$,#296);
#294=SHAPE_REPRESENTATION('',(#134),#284);
#295=PRODUCT_DEFINITION_CONTEXT('part definition',#300,'design');
#296=PRODUCT_DEFINITION('72007421DS',
'Blindstopfen-01-BT-0007-72007421DS',#297,#295);
#297=PRODUCT_DEFINITION_FORMATION('',$,#302);
#298=PRODUCT_RELATED_PRODUCT_CATEGORY(
'Blindstopfen-01-BT-0007-72007421DS',
'Blindstopfen-01-BT-0007-72007421DS',(#302));
#299=APPLICATION_PROTOCOL_DEFINITION('international standard',
'automotive_design',2009,#300);
#300=APPLICATION_CONTEXT(
'Core Data for Automotive Mechanical Design Process');
#301=PRODUCT_CONTEXT('part definition',#300,'mechanical');
#302=PRODUCT('72007421DS','Blindstopfen-01-BT-0007-72007421DS',
'Blindstopfen PG 21 (13-18)',(#301));
#303=PRESENTATION_STYLE_ASSIGNMENT((#304));
#304=SURFACE_STYLE_USAGE(.BOTH.,#305);
#305=SURFACE_SIDE_STYLE('',(#306));
#306=SURFACE_STYLE_FILL_AREA(#307);
#307=FILL_AREA_STYLE('',(#308));
#308=FILL_AREA_STYLE_COLOUR('',#309);
#309=COLOUR_RGB('',0.749019607843137,0.749019607843137,0.749019607843137);
ENDSEC;
END-ISO-10303-21;
