ISO-10303-21;
HEADER;
/* Generated by software containing ST-Developer
 * from STEP Tools, Inc. (www.steptools.com) 
 */

FILE_DESCRIPTION(
/* description */ ('Blindstopfen PG 11 (3-7)'),
/* implementation_level */ '2;1');

FILE_NAME(
/* name */ 
'Z:\\Inventor\\Blindstopfen\\Blindstopfen-DS\\72007411DS-RST.stp',
/* time_stamp */ '2022-02-08T15:22:11+01:00',
/* author */ ('sl'),
/* organization */ (''),
/* preprocessor_version */ 'ST-DEVELOPER v16.5',
/* originating_system */ 'Autodesk Inventor 2017',
/* authorisation */ '');

FILE_SCHEMA (('AUTOMOTIVE_DESIGN { 1 0 10303 214 3 1 1 }'));
ENDSEC;

DATA;
#10=MECHANICAL_DESIGN_GEOMETRIC_PRESENTATION_REPRESENTATION('',(#13),#243);
#11=SHAPE_REPRESENTATION_RELATIONSHIP('SRR','None',#252,#12);
#12=ADVANCED_BREP_SHAPE_REPRESENTATION('',(#14),#242);
#13=STYLED_ITEM('',(#261),#14);
#14=MANIFOLD_SOLID_BREP('Volumenk\X\F6rper1',#117);
#15=SPHERICAL_SURFACE('',#138,6.72916666666669);
#16=(
BOUNDED_CURVE()
B_SPLINE_CURVE(2,(#226,#227,#228),.UNSPECIFIED.,.F.,.F.)
B_SPLINE_CURVE_WITH_KNOTS((3,3),(1.2444494057128E-15,1.5707963267949),
 .UNSPECIFIED.)
CURVE()
GEOMETRIC_REPRESENTATION_ITEM()
RATIONAL_B_SPLINE_CURVE((1.,0.707106781186543,1.))
REPRESENTATION_ITEM('')
);
#17=(
BOUNDED_SURFACE()
B_SPLINE_SURFACE(2,2,((#198,#199,#200,#201,#202,#203,#204,#205,#206),(#207,
#208,#209,#210,#211,#212,#213,#214,#215),(#216,#217,#218,#219,#220,#221,
#222,#223,#224)),.UNSPECIFIED.,.F.,.T.,.F.)
B_SPLINE_SURFACE_WITH_KNOTS((3,3),(3,2,2,2,3),(-1.5707963267949,-1.2444494057128E-15),
(-3.14159265358979,-1.5707963267949,0.,1.5707963267949,3.14159265358979),
 .UNSPECIFIED.)
GEOMETRIC_REPRESENTATION_ITEM()
RATIONAL_B_SPLINE_SURFACE(((1.,0.707106781186548,1.,0.707106781186548,1.,
0.707106781186548,1.,0.707106781186548,1.),(0.707106781186543,0.499999999999997,
0.707106781186543,0.499999999999997,0.707106781186543,0.499999999999997,
0.707106781186543,0.499999999999997,0.707106781186543),(1.,0.707106781186548,
1.,0.707106781186548,1.,0.707106781186548,1.,0.707106781186548,1.)))
REPRESENTATION_ITEM('')
SURFACE()
);
#18=CYLINDRICAL_SURFACE('',#132,1.99999999999999);
#19=CYLINDRICAL_SURFACE('',#142,3.49999999999999);
#20=TOROIDAL_SURFACE('',#130,2.3,0.300000000000001);
#21=PLANE('',#128);
#22=PLANE('',#137);
#23=PLANE('',#140);
#24=FACE_BOUND('',#40,.T.);
#25=FACE_BOUND('',#42,.T.);
#26=FACE_BOUND('',#44,.T.);
#27=FACE_BOUND('',#46,.T.);
#28=FACE_BOUND('',#51,.T.);
#29=FACE_BOUND('',#53,.T.);
#30=FACE_OUTER_BOUND('',#39,.T.);
#31=FACE_OUTER_BOUND('',#41,.T.);
#32=FACE_OUTER_BOUND('',#43,.T.);
#33=FACE_OUTER_BOUND('',#45,.T.);
#34=FACE_OUTER_BOUND('',#47,.T.);
#35=FACE_OUTER_BOUND('',#48,.T.);
#36=FACE_OUTER_BOUND('',#49,.T.);
#37=FACE_OUTER_BOUND('',#50,.T.);
#38=FACE_OUTER_BOUND('',#52,.T.);
#39=EDGE_LOOP('',(#85));
#40=EDGE_LOOP('',(#86));
#41=EDGE_LOOP('',(#87));
#42=EDGE_LOOP('',(#88));
#43=EDGE_LOOP('',(#89));
#44=EDGE_LOOP('',(#90));
#45=EDGE_LOOP('',(#91,#92));
#46=EDGE_LOOP('',(#93));
#47=EDGE_LOOP('',(#94,#95,#96,#97,#98,#99));
#48=EDGE_LOOP('',(#100,#101));
#49=EDGE_LOOP('',(#102));
#50=EDGE_LOOP('',(#103));
#51=EDGE_LOOP('',(#104));
#52=EDGE_LOOP('',(#105));
#53=EDGE_LOOP('',(#106));
#54=CIRCLE('',#126,2.5);
#55=CIRCLE('',#127,3.5);
#56=CIRCLE('',#129,2.3);
#57=CIRCLE('',#131,2.);
#58=CIRCLE('',#133,1.99999999999998);
#59=CIRCLE('',#134,1.99999999999998);
#60=CIRCLE('',#135,0.999999999999979);
#61=CIRCLE('',#136,0.999999999999979);
#62=CIRCLE('',#139,6.64999999999997);
#63=CIRCLE('',#141,3.49999999999998);
#64=VERTEX_POINT('',#183);
#65=VERTEX_POINT('',#185);
#66=VERTEX_POINT('',#188);
#67=VERTEX_POINT('',#191);
#68=VERTEX_POINT('',#194);
#69=VERTEX_POINT('',#195);
#70=VERTEX_POINT('',#225);
#71=VERTEX_POINT('',#229);
#72=VERTEX_POINT('',#234);
#73=VERTEX_POINT('',#237);
#74=EDGE_CURVE('',#64,#64,#54,.T.);
#75=EDGE_CURVE('',#65,#65,#55,.T.);
#76=EDGE_CURVE('',#66,#66,#56,.T.);
#77=EDGE_CURVE('',#67,#67,#57,.T.);
#78=EDGE_CURVE('',#68,#69,#58,.T.);
#79=EDGE_CURVE('',#69,#68,#59,.T.);
#80=EDGE_CURVE('',#69,#70,#16,.T.);
#81=EDGE_CURVE('',#71,#70,#60,.T.);
#82=EDGE_CURVE('',#70,#71,#61,.T.);
#83=EDGE_CURVE('',#72,#72,#62,.T.);
#84=EDGE_CURVE('',#73,#73,#63,.T.);
#85=ORIENTED_EDGE('',*,*,#74,.F.);
#86=ORIENTED_EDGE('',*,*,#75,.T.);
#87=ORIENTED_EDGE('',*,*,#74,.T.);
#88=ORIENTED_EDGE('',*,*,#76,.F.);
#89=ORIENTED_EDGE('',*,*,#77,.F.);
#90=ORIENTED_EDGE('',*,*,#76,.T.);
#91=ORIENTED_EDGE('',*,*,#78,.F.);
#92=ORIENTED_EDGE('',*,*,#79,.F.);
#93=ORIENTED_EDGE('',*,*,#77,.T.);
#94=ORIENTED_EDGE('',*,*,#78,.T.);
#95=ORIENTED_EDGE('',*,*,#80,.T.);
#96=ORIENTED_EDGE('',*,*,#81,.F.);
#97=ORIENTED_EDGE('',*,*,#82,.F.);
#98=ORIENTED_EDGE('',*,*,#80,.F.);
#99=ORIENTED_EDGE('',*,*,#79,.T.);
#100=ORIENTED_EDGE('',*,*,#81,.T.);
#101=ORIENTED_EDGE('',*,*,#82,.T.);
#102=ORIENTED_EDGE('',*,*,#83,.F.);
#103=ORIENTED_EDGE('',*,*,#83,.T.);
#104=ORIENTED_EDGE('',*,*,#84,.F.);
#105=ORIENTED_EDGE('',*,*,#75,.F.);
#106=ORIENTED_EDGE('',*,*,#84,.T.);
#107=CONICAL_SURFACE('',#125,3.,44.9999999999999);
#108=ADVANCED_FACE('',(#30,#24),#107,.T.);
#109=ADVANCED_FACE('',(#31,#25),#21,.T.);
#110=ADVANCED_FACE('',(#32,#26),#20,.T.);
#111=ADVANCED_FACE('',(#33,#27),#18,.F.);
#112=ADVANCED_FACE('',(#34),#17,.T.);
#113=ADVANCED_FACE('',(#35),#22,.T.);
#114=ADVANCED_FACE('',(#36),#15,.T.);
#115=ADVANCED_FACE('',(#37,#28),#23,.T.);
#116=ADVANCED_FACE('',(#38,#29),#19,.T.);
#117=CLOSED_SHELL('',(#108,#109,#110,#111,#112,#113,#114,#115,#116));
#118=DATE_TIME_ROLE('creation_date');
#119=APPLIED_DATE_AND_TIME_ASSIGNMENT(#120,#118,(#254));
#120=DATE_AND_TIME(#121,#122);
#121=CALENDAR_DATE(2022,7,2);
#122=LOCAL_TIME(23,0,0.,#123);
#123=COORDINATED_UNIVERSAL_TIME_OFFSET(0,0,.BEHIND.);
#124=AXIS2_PLACEMENT_3D('placement',#181,#143,#144);
#125=AXIS2_PLACEMENT_3D('',#182,#145,#146);
#126=AXIS2_PLACEMENT_3D('',#184,#147,#148);
#127=AXIS2_PLACEMENT_3D('',#186,#149,#150);
#128=AXIS2_PLACEMENT_3D('',#187,#151,#152);
#129=AXIS2_PLACEMENT_3D('',#189,#153,#154);
#130=AXIS2_PLACEMENT_3D('',#190,#155,#156);
#131=AXIS2_PLACEMENT_3D('',#192,#157,#158);
#132=AXIS2_PLACEMENT_3D('',#193,#159,#160);
#133=AXIS2_PLACEMENT_3D('',#196,#161,#162);
#134=AXIS2_PLACEMENT_3D('',#197,#163,#164);
#135=AXIS2_PLACEMENT_3D('',#230,#165,#166);
#136=AXIS2_PLACEMENT_3D('',#231,#167,#168);
#137=AXIS2_PLACEMENT_3D('',#232,#169,#170);
#138=AXIS2_PLACEMENT_3D('',#233,#171,#172);
#139=AXIS2_PLACEMENT_3D('',#235,#173,#174);
#140=AXIS2_PLACEMENT_3D('',#236,#175,#176);
#141=AXIS2_PLACEMENT_3D('',#238,#177,#178);
#142=AXIS2_PLACEMENT_3D('',#239,#179,#180);
#143=DIRECTION('axis',(0.,0.,1.));
#144=DIRECTION('refdir',(1.,0.,0.));
#145=DIRECTION('center_axis',(-1.,1.73244772748158E-15,0.));
#146=DIRECTION('ref_axis',(1.58603289232166E-15,1.,0.));
#147=DIRECTION('center_axis',(1.,-1.73244772748158E-15,0.));
#148=DIRECTION('ref_axis',(0.,0.,-1.));
#149=DIRECTION('center_axis',(1.,-1.73244772748158E-15,0.));
#150=DIRECTION('ref_axis',(0.,0.,-1.));
#151=DIRECTION('center_axis',(1.,-1.73244772748158E-15,0.));
#152=DIRECTION('ref_axis',(0.,0.,-1.));
#153=DIRECTION('center_axis',(1.,-1.73244772748158E-15,0.));
#154=DIRECTION('ref_axis',(0.,0.,-1.));
#155=DIRECTION('center_axis',(1.,-1.73244772748158E-15,0.));
#156=DIRECTION('ref_axis',(0.,0.,-1.));
#157=DIRECTION('center_axis',(1.,-1.73244772748158E-15,0.));
#158=DIRECTION('ref_axis',(0.,0.,-1.));
#159=DIRECTION('center_axis',(1.,-1.73244772748158E-15,0.));
#160=DIRECTION('ref_axis',(1.58603289232166E-15,1.,0.));
#161=DIRECTION('center_axis',(1.,-1.73244772748158E-15,0.));
#162=DIRECTION('ref_axis',(0.,0.,-1.));
#163=DIRECTION('center_axis',(1.,-1.73244772748158E-15,0.));
#164=DIRECTION('ref_axis',(0.,0.,-1.));
#165=DIRECTION('center_axis',(1.,-1.73244772748158E-15,0.));
#166=DIRECTION('ref_axis',(0.,0.,-1.));
#167=DIRECTION('center_axis',(1.,-1.73244772748158E-15,0.));
#168=DIRECTION('ref_axis',(0.,0.,-1.));
#169=DIRECTION('center_axis',(1.,-1.73244772748158E-15,0.));
#170=DIRECTION('ref_axis',(0.,0.,-1.));
#171=DIRECTION('center_axis',(0.,0.,1.));
#172=DIRECTION('ref_axis',(1.,0.,0.));
#173=DIRECTION('center_axis',(1.,-1.73244772748158E-15,0.));
#174=DIRECTION('ref_axis',(0.,0.,-1.));
#175=DIRECTION('center_axis',(1.,-1.73244772748158E-15,0.));
#176=DIRECTION('ref_axis',(0.,0.,-1.));
#177=DIRECTION('center_axis',(1.,-1.73244772748158E-15,0.));
#178=DIRECTION('ref_axis',(0.,0.,-1.));
#179=DIRECTION('center_axis',(1.,-1.73244772748158E-15,0.));
#180=DIRECTION('ref_axis',(1.58603289232166E-15,1.,0.));
#181=CARTESIAN_POINT('',(0.,0.,0.));
#182=CARTESIAN_POINT('Origin',(-0.500000000000006,8.66223863740797E-16,
0.));
#183=CARTESIAN_POINT('',(0.,2.5,0.));
#184=CARTESIAN_POINT('Origin',(-4.44089209850063E-15,7.88860905221012E-30,
0.));
#185=CARTESIAN_POINT('',(-1.,3.5,0.));
#186=CARTESIAN_POINT('Origin',(-1.00000000000001,1.73244772748158E-15,0.));
#187=CARTESIAN_POINT('Origin',(0.,2.3,0.));
#188=CARTESIAN_POINT('',(0.,2.3,0.));
#189=CARTESIAN_POINT('Origin',(-4.44089209850063E-15,7.88860905221012E-30,
0.));
#190=CARTESIAN_POINT('Origin',(-0.300000000000005,5.1973431824448E-16,0.));
#191=CARTESIAN_POINT('',(-0.3,2.,0.));
#192=CARTESIAN_POINT('Origin',(-0.300000000000004,5.19734318244478E-16,
0.));
#193=CARTESIAN_POINT('Origin',(-7.,1.2127134092371E-14,0.));
#194=CARTESIAN_POINT('',(-13.7,2.,0.));
#195=CARTESIAN_POINT('',(-13.7,2.37345338664976E-14,1.99999999999998));
#196=CARTESIAN_POINT('Origin',(-13.7,2.37345338664976E-14,0.));
#197=CARTESIAN_POINT('Origin',(-13.7,2.37345338664976E-14,0.));
#198=CARTESIAN_POINT('Ctrl Pts',(-14.7,2.54669815939792E-14,0.999999999999979));
#199=CARTESIAN_POINT('Ctrl Pts',(-14.7,-0.999999999999953,0.999999999999979));
#200=CARTESIAN_POINT('Ctrl Pts',(-14.7,-0.999999999999953,3.94430452610506E-30));
#201=CARTESIAN_POINT('Ctrl Pts',(-14.7,-0.999999999999953,-0.999999999999979));
#202=CARTESIAN_POINT('Ctrl Pts',(-14.7,2.54669815939792E-14,-0.999999999999979));
#203=CARTESIAN_POINT('Ctrl Pts',(-14.7,1.,-0.999999999999979));
#204=CARTESIAN_POINT('Ctrl Pts',(-14.7,1.,-3.94430452610506E-30));
#205=CARTESIAN_POINT('Ctrl Pts',(-14.7,1.,0.999999999999979));
#206=CARTESIAN_POINT('Ctrl Pts',(-14.7,2.54669815939792E-14,0.999999999999979));
#207=CARTESIAN_POINT('Ctrl Pts',(-14.7,2.54669815939792E-14,1.99999999999998));
#208=CARTESIAN_POINT('Ctrl Pts',(-14.7,-1.99999999999995,1.99999999999998));
#209=CARTESIAN_POINT('Ctrl Pts',(-14.7,-1.99999999999995,3.94430452610506E-30));
#210=CARTESIAN_POINT('Ctrl Pts',(-14.7,-1.99999999999995,-1.99999999999998));
#211=CARTESIAN_POINT('Ctrl Pts',(-14.7,2.54669815939792E-14,-1.99999999999998));
#212=CARTESIAN_POINT('Ctrl Pts',(-14.7,2.,-1.99999999999998));
#213=CARTESIAN_POINT('Ctrl Pts',(-14.7,2.00000000000001,-3.94430452610506E-30));
#214=CARTESIAN_POINT('Ctrl Pts',(-14.7,2.,1.99999999999998));
#215=CARTESIAN_POINT('Ctrl Pts',(-14.7,2.54669815939792E-14,1.99999999999998));
#216=CARTESIAN_POINT('Ctrl Pts',(-13.7,2.37345338664976E-14,1.99999999999998));
#217=CARTESIAN_POINT('Ctrl Pts',(-13.7,-1.99999999999996,1.99999999999998));
#218=CARTESIAN_POINT('Ctrl Pts',(-13.7,-1.99999999999996,0.));
#219=CARTESIAN_POINT('Ctrl Pts',(-13.7,-1.99999999999996,-1.99999999999998));
#220=CARTESIAN_POINT('Ctrl Pts',(-13.7,2.37345338664976E-14,-1.99999999999998));
#221=CARTESIAN_POINT('Ctrl Pts',(-13.7,2.,-1.99999999999998));
#222=CARTESIAN_POINT('Ctrl Pts',(-13.7,2.,0.));
#223=CARTESIAN_POINT('Ctrl Pts',(-13.7,2.,1.99999999999998));
#224=CARTESIAN_POINT('Ctrl Pts',(-13.7,2.37345338664976E-14,1.99999999999998));
#225=CARTESIAN_POINT('',(-14.7,2.54669815939792E-14,0.999999999999979));
#226=CARTESIAN_POINT('Ctrl Pts',(-13.7,2.37345338664976E-14,1.99999999999998));
#227=CARTESIAN_POINT('Ctrl Pts',(-14.7,2.54669815939792E-14,1.99999999999998));
#228=CARTESIAN_POINT('Ctrl Pts',(-14.7,2.54669815939792E-14,0.999999999999979));
#229=CARTESIAN_POINT('',(-14.7,1.,0.));
#230=CARTESIAN_POINT('Origin',(-14.7,2.54669815939792E-14,0.));
#231=CARTESIAN_POINT('Origin',(-14.7,2.54669815939792E-14,0.));
#232=CARTESIAN_POINT('Origin',(-14.7,2.55351295663786E-14,0.));
#233=CARTESIAN_POINT('Origin',(-13.9708333333333,-3.88578058618805E-15,
0.));
#234=CARTESIAN_POINT('',(-15.,6.65,0.));
#235=CARTESIAN_POINT('Origin',(-15.,2.59867159122237E-14,0.));
#236=CARTESIAN_POINT('Origin',(-15.,3.5,0.));
#237=CARTESIAN_POINT('',(-15.,3.5,0.));
#238=CARTESIAN_POINT('Origin',(-15.,2.59867159122236E-14,0.));
#239=CARTESIAN_POINT('Origin',(-8.00000000000001,1.38595818198526E-14,0.));
#240=UNCERTAINTY_MEASURE_WITH_UNIT(LENGTH_MEASURE(0.01),#244,
'DISTANCE_ACCURACY_VALUE',
'Maximum model space distance between geometric entities at asserted c
onnectivities');
#241=UNCERTAINTY_MEASURE_WITH_UNIT(LENGTH_MEASURE(1.E-6),#244,
'DISTANCE_ACCURACY_VALUE',
'Maximum model space distance between geometric entities at asserted c
onnectivities');
#242=(
GEOMETRIC_REPRESENTATION_CONTEXT(3)
GLOBAL_UNCERTAINTY_ASSIGNED_CONTEXT((#240))
GLOBAL_UNIT_ASSIGNED_CONTEXT((#244,#247,#245))
REPRESENTATION_CONTEXT('','3D')
);
#243=(
GEOMETRIC_REPRESENTATION_CONTEXT(3)
GLOBAL_UNCERTAINTY_ASSIGNED_CONTEXT((#241))
GLOBAL_UNIT_ASSIGNED_CONTEXT((#244,#247,#245))
REPRESENTATION_CONTEXT('','3D')
);
#244=(
LENGTH_UNIT()
NAMED_UNIT(*)
SI_UNIT(.MILLI.,.METRE.)
);
#245=(
NAMED_UNIT(*)
SI_UNIT($,.STERADIAN.)
SOLID_ANGLE_UNIT()
);
#246=DIMENSIONAL_EXPONENTS(0.,0.,0.,0.,0.,0.,0.);
#247=(
CONVERSION_BASED_UNIT('degree',#249)
NAMED_UNIT(#246)
PLANE_ANGLE_UNIT()
);
#248=(
NAMED_UNIT(*)
PLANE_ANGLE_UNIT()
SI_UNIT($,.RADIAN.)
);
#249=PLANE_ANGLE_MEASURE_WITH_UNIT(PLANE_ANGLE_MEASURE(0.01745329252),#248);
#250=SHAPE_DEFINITION_REPRESENTATION(#251,#252);
#251=PRODUCT_DEFINITION_SHAPE('',$,#254);
#252=SHAPE_REPRESENTATION('',(#124),#242);
#253=PRODUCT_DEFINITION_CONTEXT('part definition',#258,'design');
#254=PRODUCT_DEFINITION('72007411DS',
'Blindstopfen-01-BT-0003-72007411DS',#255,#253);
#255=PRODUCT_DEFINITION_FORMATION('',$,#260);
#256=PRODUCT_RELATED_PRODUCT_CATEGORY(
'Blindstopfen-01-BT-0003-72007411DS',
'Blindstopfen-01-BT-0003-72007411DS',(#260));
#257=APPLICATION_PROTOCOL_DEFINITION('international standard',
'automotive_design',2009,#258);
#258=APPLICATION_CONTEXT(
'Core Data for Automotive Mechanical Design Process');
#259=PRODUCT_CONTEXT('part definition',#258,'mechanical');
#260=PRODUCT('72007411DS','Blindstopfen-01-BT-0003-72007411DS',
'Blindstopfen PG 11 (3-7)',(#259));
#261=PRESENTATION_STYLE_ASSIGNMENT((#262));
#262=SURFACE_STYLE_USAGE(.BOTH.,#263);
#263=SURFACE_SIDE_STYLE('',(#264));
#264=SURFACE_STYLE_FILL_AREA(#265);
#265=FILL_AREA_STYLE('',(#266));
#266=FILL_AREA_STYLE_COLOUR('',#267);
#267=COLOUR_RGB('',0.749019607843137,0.749019607843137,0.749019607843137);
ENDSEC;
END-ISO-10303-21;
