ISO-10303-21;
HEADER;
/* Generated by software containing ST-Developer
 * from STEP Tools, Inc. (www.steptools.com) 
 */

FILE_DESCRIPTION(
/* description */ ('Blindstopfen PG 13,5 (5-9/5-8,5)'),
/* implementation_level */ '2;1');

FILE_NAME(
/* name */ 
'Z:\\Inventor\\Blindstopfen\\Blindstopfen-DS\\71007413DS-RST.stp',
/* time_stamp */ '2022-02-08T15:09:12+01:00',
/* author */ ('sl'),
/* organization */ (''),
/* preprocessor_version */ 'ST-DEVELOPER v16.5',
/* originating_system */ 'Autodesk Inventor 2017',
/* authorisation */ '');

FILE_SCHEMA (('AUTOMOTIVE_DESIGN { 1 0 10303 214 3 1 1 }'));
ENDSEC;

DATA;
#10=MECHANICAL_DESIGN_GEOMETRIC_PRESENTATION_REPRESENTATION('',(#13),#285);
#11=SHAPE_REPRESENTATION_RELATIONSHIP('SRR','None',#294,#12);
#12=ADVANCED_BREP_SHAPE_REPRESENTATION('',(#14),#284);
#13=STYLED_ITEM('',(#303),#14);
#14=MANIFOLD_SOLID_BREP('Volumenk\X\F6rper1',#127);
#15=(
BOUNDED_CURVE()
B_SPLINE_CURVE(2,(#236,#237,#238),.UNSPECIFIED.,.F.,.F.)
B_SPLINE_CURVE_WITH_KNOTS((3,3),(6.0915067883027E-16,1.5707963267949),
 .UNSPECIFIED.)
CURVE()
GEOMETRIC_REPRESENTATION_ITEM()
RATIONAL_B_SPLINE_CURVE((1.,0.707106781186549,1.))
REPRESENTATION_ITEM('')
);
#16=(
BOUNDED_CURVE()
B_SPLINE_CURVE(2,(#275,#276,#277),.UNSPECIFIED.,.F.,.F.)
B_SPLINE_CURVE_WITH_KNOTS((3,3),(0.025319109412334,1.57111683832836),
 .UNSPECIFIED.)
CURVE()
GEOMETRIC_REPRESENTATION_ITEM()
RATIONAL_B_SPLINE_CURVE((1.,0.71588965428748,1.))
REPRESENTATION_ITEM('')
);
#17=(
BOUNDED_SURFACE()
B_SPLINE_SURFACE(2,2,((#208,#209,#210,#211,#212,#213,#214,#215,#216),(#217,
#218,#219,#220,#221,#222,#223,#224,#225),(#226,#227,#228,#229,#230,#231,
#232,#233,#234)),.UNSPECIFIED.,.F.,.T.,.F.)
B_SPLINE_SURFACE_WITH_KNOTS((3,3),(3,2,2,2,3),(-1.5707963267949,-6.0915067883027E-16),
(-3.14159265358979,-1.5707963267949,0.,1.5707963267949,3.14159265358979),
 .UNSPECIFIED.)
GEOMETRIC_REPRESENTATION_ITEM()
RATIONAL_B_SPLINE_SURFACE(((1.,0.707106781186548,1.,0.707106781186548,1.,
0.707106781186548,1.,0.707106781186548,1.),(0.707106781186549,0.500000000000001,
0.707106781186549,0.500000000000001,0.707106781186549,0.500000000000001,
0.707106781186549,0.500000000000001,0.707106781186549),(1.,0.707106781186548,
1.,0.707106781186548,1.,0.707106781186548,1.,0.707106781186548,1.)))
REPRESENTATION_ITEM('')
SURFACE()
);
#18=(
BOUNDED_SURFACE()
B_SPLINE_SURFACE(2,2,((#243,#244,#245,#246,#247,#248,#249,#250,#251),(#252,
#253,#254,#255,#256,#257,#258,#259,#260),(#261,#262,#263,#264,#265,#266,
#267,#268,#269)),.UNSPECIFIED.,.F.,.T.,.F.)
B_SPLINE_SURFACE_WITH_KNOTS((3,3),(3,2,2,2,3),(-1.57111683832836,-0.025319109412334),
(-3.14159265358979,-1.5707963267949,0.,1.5707963267949,3.14159265358979),
 .UNSPECIFIED.)
GEOMETRIC_REPRESENTATION_ITEM()
RATIONAL_B_SPLINE_SURFACE(((1.,0.707106781186548,1.,0.707106781186548,1.,
0.707106781186548,1.,0.707106781186548,1.),(0.71588965428748,0.50621042912797,
0.71588965428748,0.50621042912797,0.71588965428748,0.50621042912797,0.71588965428748,
0.50621042912797,0.71588965428748),(1.,0.707106781186548,1.,0.707106781186548,
1.,0.707106781186548,1.,0.707106781186548,1.)))
REPRESENTATION_ITEM('')
SURFACE()
);
#19=CYLINDRICAL_SURFACE('',#142,3.25);
#20=CYLINDRICAL_SURFACE('',#152,4.25);
#21=TOROIDAL_SURFACE('',#140,3.35,0.1);
#22=PLANE('',#138);
#23=PLANE('',#147);
#24=PLANE('',#150);
#25=FACE_BOUND('',#41,.T.);
#26=FACE_BOUND('',#43,.T.);
#27=FACE_BOUND('',#45,.T.);
#28=FACE_BOUND('',#47,.T.);
#29=FACE_BOUND('',#52,.T.);
#30=FACE_BOUND('',#54,.T.);
#31=FACE_OUTER_BOUND('',#40,.T.);
#32=FACE_OUTER_BOUND('',#42,.T.);
#33=FACE_OUTER_BOUND('',#44,.T.);
#34=FACE_OUTER_BOUND('',#46,.T.);
#35=FACE_OUTER_BOUND('',#48,.T.);
#36=FACE_OUTER_BOUND('',#49,.T.);
#37=FACE_OUTER_BOUND('',#50,.T.);
#38=FACE_OUTER_BOUND('',#51,.T.);
#39=FACE_OUTER_BOUND('',#53,.T.);
#40=EDGE_LOOP('',(#91));
#41=EDGE_LOOP('',(#92));
#42=EDGE_LOOP('',(#93));
#43=EDGE_LOOP('',(#94));
#44=EDGE_LOOP('',(#95));
#45=EDGE_LOOP('',(#96));
#46=EDGE_LOOP('',(#97,#98));
#47=EDGE_LOOP('',(#99));
#48=EDGE_LOOP('',(#100,#101,#102,#103,#104,#105));
#49=EDGE_LOOP('',(#106,#107));
#50=EDGE_LOOP('',(#108,#109,#110,#111));
#51=EDGE_LOOP('',(#112,#113));
#52=EDGE_LOOP('',(#114));
#53=EDGE_LOOP('',(#115));
#54=EDGE_LOOP('',(#116));
#55=CIRCLE('',#136,4.15);
#56=CIRCLE('',#137,4.25);
#57=CIRCLE('',#139,3.35);
#58=CIRCLE('',#141,3.25);
#59=CIRCLE('',#143,3.25);
#60=CIRCLE('',#144,3.25);
#61=CIRCLE('',#145,0.249999999999996);
#62=CIRCLE('',#146,0.249999999999996);
#63=CIRCLE('',#148,7.89999999999999);
#64=CIRCLE('',#149,7.89999999999999);
#65=CIRCLE('',#151,4.24999999999999);
#66=VERTEX_POINT('',#193);
#67=VERTEX_POINT('',#195);
#68=VERTEX_POINT('',#198);
#69=VERTEX_POINT('',#201);
#70=VERTEX_POINT('',#204);
#71=VERTEX_POINT('',#205);
#72=VERTEX_POINT('',#235);
#73=VERTEX_POINT('',#239);
#74=VERTEX_POINT('',#270);
#75=VERTEX_POINT('',#271);
#76=VERTEX_POINT('',#274);
#77=VERTEX_POINT('',#279);
#78=EDGE_CURVE('',#66,#66,#55,.T.);
#79=EDGE_CURVE('',#67,#67,#56,.T.);
#80=EDGE_CURVE('',#68,#68,#57,.T.);
#81=EDGE_CURVE('',#69,#69,#58,.T.);
#82=EDGE_CURVE('',#70,#71,#59,.T.);
#83=EDGE_CURVE('',#71,#70,#60,.T.);
#84=EDGE_CURVE('',#71,#72,#15,.T.);
#85=EDGE_CURVE('',#73,#72,#61,.T.);
#86=EDGE_CURVE('',#72,#73,#62,.T.);
#87=EDGE_CURVE('',#74,#75,#63,.T.);
#88=EDGE_CURVE('',#75,#74,#64,.T.);
#89=EDGE_CURVE('',#75,#76,#16,.T.);
#90=EDGE_CURVE('',#77,#77,#65,.T.);
#91=ORIENTED_EDGE('',*,*,#78,.F.);
#92=ORIENTED_EDGE('',*,*,#79,.T.);
#93=ORIENTED_EDGE('',*,*,#78,.T.);
#94=ORIENTED_EDGE('',*,*,#80,.F.);
#95=ORIENTED_EDGE('',*,*,#81,.F.);
#96=ORIENTED_EDGE('',*,*,#80,.T.);
#97=ORIENTED_EDGE('',*,*,#82,.F.);
#98=ORIENTED_EDGE('',*,*,#83,.F.);
#99=ORIENTED_EDGE('',*,*,#81,.T.);
#100=ORIENTED_EDGE('',*,*,#82,.T.);
#101=ORIENTED_EDGE('',*,*,#84,.T.);
#102=ORIENTED_EDGE('',*,*,#85,.F.);
#103=ORIENTED_EDGE('',*,*,#86,.F.);
#104=ORIENTED_EDGE('',*,*,#84,.F.);
#105=ORIENTED_EDGE('',*,*,#83,.T.);
#106=ORIENTED_EDGE('',*,*,#85,.T.);
#107=ORIENTED_EDGE('',*,*,#86,.T.);
#108=ORIENTED_EDGE('',*,*,#87,.F.);
#109=ORIENTED_EDGE('',*,*,#88,.F.);
#110=ORIENTED_EDGE('',*,*,#89,.T.);
#111=ORIENTED_EDGE('',*,*,#89,.F.);
#112=ORIENTED_EDGE('',*,*,#87,.T.);
#113=ORIENTED_EDGE('',*,*,#88,.T.);
#114=ORIENTED_EDGE('',*,*,#90,.F.);
#115=ORIENTED_EDGE('',*,*,#79,.F.);
#116=ORIENTED_EDGE('',*,*,#90,.T.);
#117=CONICAL_SURFACE('',#135,4.2,45.);
#118=ADVANCED_FACE('',(#31,#25),#117,.T.);
#119=ADVANCED_FACE('',(#32,#26),#22,.T.);
#120=ADVANCED_FACE('',(#33,#27),#21,.T.);
#121=ADVANCED_FACE('',(#34,#28),#19,.F.);
#122=ADVANCED_FACE('',(#35),#17,.T.);
#123=ADVANCED_FACE('',(#36),#23,.T.);
#124=ADVANCED_FACE('',(#37),#18,.F.);
#125=ADVANCED_FACE('',(#38,#29),#24,.T.);
#126=ADVANCED_FACE('',(#39,#30),#20,.T.);
#127=CLOSED_SHELL('',(#118,#119,#120,#121,#122,#123,#124,#125,#126));
#128=DATE_TIME_ROLE('creation_date');
#129=APPLIED_DATE_AND_TIME_ASSIGNMENT(#130,#128,(#296));
#130=DATE_AND_TIME(#131,#132);
#131=CALENDAR_DATE(2022,7,2);
#132=LOCAL_TIME(23,0,0.,#133);
#133=COORDINATED_UNIVERSAL_TIME_OFFSET(0,0,.BEHIND.);
#134=AXIS2_PLACEMENT_3D('placement',#191,#153,#154);
#135=AXIS2_PLACEMENT_3D('',#192,#155,#156);
#136=AXIS2_PLACEMENT_3D('',#194,#157,#158);
#137=AXIS2_PLACEMENT_3D('',#196,#159,#160);
#138=AXIS2_PLACEMENT_3D('',#197,#161,#162);
#139=AXIS2_PLACEMENT_3D('',#199,#163,#164);
#140=AXIS2_PLACEMENT_3D('',#200,#165,#166);
#141=AXIS2_PLACEMENT_3D('',#202,#167,#168);
#142=AXIS2_PLACEMENT_3D('',#203,#169,#170);
#143=AXIS2_PLACEMENT_3D('',#206,#171,#172);
#144=AXIS2_PLACEMENT_3D('',#207,#173,#174);
#145=AXIS2_PLACEMENT_3D('',#240,#175,#176);
#146=AXIS2_PLACEMENT_3D('',#241,#177,#178);
#147=AXIS2_PLACEMENT_3D('',#242,#179,#180);
#148=AXIS2_PLACEMENT_3D('',#272,#181,#182);
#149=AXIS2_PLACEMENT_3D('',#273,#183,#184);
#150=AXIS2_PLACEMENT_3D('',#278,#185,#186);
#151=AXIS2_PLACEMENT_3D('',#280,#187,#188);
#152=AXIS2_PLACEMENT_3D('',#281,#189,#190);
#153=DIRECTION('axis',(0.,0.,1.));
#154=DIRECTION('refdir',(1.,0.,0.));
#155=DIRECTION('center_axis',(-1.,5.62292934304865E-16,0.));
#156=DIRECTION('ref_axis',(5.2245789394125E-16,1.,0.));
#157=DIRECTION('center_axis',(1.,-5.62292934304865E-16,0.));
#158=DIRECTION('ref_axis',(0.,0.,-1.));
#159=DIRECTION('center_axis',(1.,-5.62292934304865E-16,0.));
#160=DIRECTION('ref_axis',(0.,0.,-1.));
#161=DIRECTION('center_axis',(1.,-5.62292934304865E-16,0.));
#162=DIRECTION('ref_axis',(0.,0.,-1.));
#163=DIRECTION('center_axis',(1.,-5.62292934304865E-16,0.));
#164=DIRECTION('ref_axis',(0.,0.,-1.));
#165=DIRECTION('center_axis',(1.,-5.62292934304865E-16,0.));
#166=DIRECTION('ref_axis',(0.,0.,-1.));
#167=DIRECTION('center_axis',(1.,-5.62292934304865E-16,0.));
#168=DIRECTION('ref_axis',(0.,0.,-1.));
#169=DIRECTION('center_axis',(1.,-5.62292934304865E-16,0.));
#170=DIRECTION('ref_axis',(5.2245789394125E-16,1.,0.));
#171=DIRECTION('center_axis',(1.,-5.62292934304865E-16,0.));
#172=DIRECTION('ref_axis',(0.,0.,-1.));
#173=DIRECTION('center_axis',(1.,-5.62292934304865E-16,0.));
#174=DIRECTION('ref_axis',(0.,0.,-1.));
#175=DIRECTION('center_axis',(1.,-5.62292934304865E-16,0.));
#176=DIRECTION('ref_axis',(0.,0.,-1.));
#177=DIRECTION('center_axis',(1.,-5.62292934304865E-16,0.));
#178=DIRECTION('ref_axis',(0.,0.,-1.));
#179=DIRECTION('center_axis',(1.,-5.62292934304865E-16,0.));
#180=DIRECTION('ref_axis',(0.,0.,-1.));
#181=DIRECTION('center_axis',(1.,-5.62292934304865E-16,0.));
#182=DIRECTION('ref_axis',(0.,0.,-1.));
#183=DIRECTION('center_axis',(1.,-5.62292934304865E-16,0.));
#184=DIRECTION('ref_axis',(0.,0.,-1.));
#185=DIRECTION('center_axis',(1.,-5.62292934304865E-16,0.));
#186=DIRECTION('ref_axis',(0.,0.,-1.));
#187=DIRECTION('center_axis',(1.,-5.62292934304865E-16,0.));
#188=DIRECTION('ref_axis',(0.,0.,-1.));
#189=DIRECTION('center_axis',(1.,-5.62292934304865E-16,0.));
#190=DIRECTION('ref_axis',(5.2245789394125E-16,1.,0.));
#191=CARTESIAN_POINT('',(0.,0.,0.));
#192=CARTESIAN_POINT('Origin',(-0.0500000000000023,2.81146467152446E-17,
0.));
#193=CARTESIAN_POINT('',(0.,4.15,0.));
#194=CARTESIAN_POINT('Origin',(-2.22044604925031E-15,9.86076131526265E-31,
0.));
#195=CARTESIAN_POINT('',(-0.1,4.25,0.));
#196=CARTESIAN_POINT('Origin',(-0.100000000000002,5.62292934304876E-17,
0.));
#197=CARTESIAN_POINT('Origin',(0.,3.35,0.));
#198=CARTESIAN_POINT('',(0.,3.35,0.));
#199=CARTESIAN_POINT('Origin',(-2.22044604925031E-15,9.86076131526265E-31,
0.));
#200=CARTESIAN_POINT('Origin',(-0.100000000000002,5.62292934304876E-17,
0.));
#201=CARTESIAN_POINT('',(-0.1,3.25,0.));
#202=CARTESIAN_POINT('Origin',(-0.100000000000002,5.62292934304876E-17,
0.));
#203=CARTESIAN_POINT('Origin',(-5.4,3.03638184524627E-15,0.));
#204=CARTESIAN_POINT('',(-10.7,3.25,0.));
#205=CARTESIAN_POINT('',(-10.7,6.01653439706206E-15,3.25));
#206=CARTESIAN_POINT('Origin',(-10.7,6.01653439706206E-15,0.));
#207=CARTESIAN_POINT('Origin',(-10.7,6.01653439706206E-15,0.));
#208=CARTESIAN_POINT('Ctrl Pts',(-13.7,7.70341319997665E-15,0.249999999999996));
#209=CARTESIAN_POINT('Ctrl Pts',(-13.7,-0.249999999999988,0.249999999999996));
#210=CARTESIAN_POINT('Ctrl Pts',(-13.7,-0.249999999999988,0.));
#211=CARTESIAN_POINT('Ctrl Pts',(-13.7,-0.249999999999988,-0.249999999999996));
#212=CARTESIAN_POINT('Ctrl Pts',(-13.7,7.70341319997665E-15,-0.249999999999996));
#213=CARTESIAN_POINT('Ctrl Pts',(-13.7,0.250000000000004,-0.249999999999996));
#214=CARTESIAN_POINT('Ctrl Pts',(-13.7,0.250000000000004,0.));
#215=CARTESIAN_POINT('Ctrl Pts',(-13.7,0.250000000000004,0.249999999999996));
#216=CARTESIAN_POINT('Ctrl Pts',(-13.7,7.70341319997665E-15,0.249999999999996));
#217=CARTESIAN_POINT('Ctrl Pts',(-13.7,7.70341319997665E-15,3.25));
#218=CARTESIAN_POINT('Ctrl Pts',(-13.7,-3.24999999999999,3.25));
#219=CARTESIAN_POINT('Ctrl Pts',(-13.7,-3.24999999999999,0.));
#220=CARTESIAN_POINT('Ctrl Pts',(-13.7,-3.24999999999999,-3.25));
#221=CARTESIAN_POINT('Ctrl Pts',(-13.7,7.70341319997665E-15,-3.25));
#222=CARTESIAN_POINT('Ctrl Pts',(-13.7,3.25,-3.25));
#223=CARTESIAN_POINT('Ctrl Pts',(-13.7,3.25,0.));
#224=CARTESIAN_POINT('Ctrl Pts',(-13.7,3.25,3.25));
#225=CARTESIAN_POINT('Ctrl Pts',(-13.7,7.70341319997665E-15,3.25));
#226=CARTESIAN_POINT('Ctrl Pts',(-10.7,6.01653439706206E-15,3.25));
#227=CARTESIAN_POINT('Ctrl Pts',(-10.7,-3.24999999999999,3.25));
#228=CARTESIAN_POINT('Ctrl Pts',(-10.7,-3.24999999999999,0.));
#229=CARTESIAN_POINT('Ctrl Pts',(-10.7,-3.24999999999999,-3.25));
#230=CARTESIAN_POINT('Ctrl Pts',(-10.7,6.01653439706206E-15,-3.25));
#231=CARTESIAN_POINT('Ctrl Pts',(-10.7,3.25,-3.25));
#232=CARTESIAN_POINT('Ctrl Pts',(-10.7,3.25,0.));
#233=CARTESIAN_POINT('Ctrl Pts',(-10.7,3.25,3.25));
#234=CARTESIAN_POINT('Ctrl Pts',(-10.7,6.01653439706206E-15,3.25));
#235=CARTESIAN_POINT('',(-13.7,7.70341319997665E-15,0.249999999999996));
#236=CARTESIAN_POINT('Ctrl Pts',(-10.7,6.01653439706206E-15,3.25));
#237=CARTESIAN_POINT('Ctrl Pts',(-13.7,7.70341319997665E-15,3.25));
#238=CARTESIAN_POINT('Ctrl Pts',(-13.7,7.70341319997665E-15,0.249999999999996));
#239=CARTESIAN_POINT('',(-13.7,0.250000000000004,0.));
#240=CARTESIAN_POINT('Origin',(-13.7,7.70341319997665E-15,0.));
#241=CARTESIAN_POINT('Origin',(-13.7,7.70341319997665E-15,0.));
#242=CARTESIAN_POINT('Origin',(-13.7,7.70217223333702E-15,0.));
#243=CARTESIAN_POINT('Ctrl Pts',(-20.7,1.16394637401107E-14,-1.37693675905659E-16));
#244=CARTESIAN_POINT('Ctrl Pts',(-20.7,1.17771574160164E-14,-1.37693675905657E-16));
#245=CARTESIAN_POINT('Ctrl Pts',(-20.7,1.17771574160164E-14,1.97215226305253E-30));
#246=CARTESIAN_POINT('Ctrl Pts',(-20.7,1.17771574160164E-14,1.37693675905661E-16));
#247=CARTESIAN_POINT('Ctrl Pts',(-20.7,1.16394637401107E-14,1.37693675905659E-16));
#248=CARTESIAN_POINT('Ctrl Pts',(-20.7,1.15017700642051E-14,1.37693675905657E-16));
#249=CARTESIAN_POINT('Ctrl Pts',(-20.7,1.15017700642051E-14,-1.97215226305253E-30));
#250=CARTESIAN_POINT('Ctrl Pts',(-20.7,1.15017700642051E-14,-1.37693675905661E-16));
#251=CARTESIAN_POINT('Ctrl Pts',(-20.7,1.16394637401107E-14,-1.37693675905659E-16));
#252=CARTESIAN_POINT('Ctrl Pts',(-20.7024695217858,1.1640852334762E-14,
7.70493864781657));
#253=CARTESIAN_POINT('Ctrl Pts',(-20.7024695217858,-7.70493864781656,7.70493864781657));
#254=CARTESIAN_POINT('Ctrl Pts',(-20.7024695217858,-7.70493864781656,0.));
#255=CARTESIAN_POINT('Ctrl Pts',(-20.7024695217858,-7.70493864781656,-7.70493864781657));
#256=CARTESIAN_POINT('Ctrl Pts',(-20.7024695217858,1.1640852334762E-14,
-7.70493864781657));
#257=CARTESIAN_POINT('Ctrl Pts',(-20.7024695217858,7.70493864781658,-7.70493864781657));
#258=CARTESIAN_POINT('Ctrl Pts',(-20.7024695217858,7.70493864781658,0.));
#259=CARTESIAN_POINT('Ctrl Pts',(-20.7024695217858,7.70493864781658,7.70493864781657));
#260=CARTESIAN_POINT('Ctrl Pts',(-20.7024695217858,1.1640852334762E-14,
7.70493864781657));
#261=CARTESIAN_POINT('Ctrl Pts',(-13.,7.30980814596325E-15,7.89999999999999));
#262=CARTESIAN_POINT('Ctrl Pts',(-13.,-7.89999999999998,7.89999999999998));
#263=CARTESIAN_POINT('Ctrl Pts',(-13.,-7.89999999999998,0.));
#264=CARTESIAN_POINT('Ctrl Pts',(-13.,-7.89999999999998,-7.89999999999998));
#265=CARTESIAN_POINT('Ctrl Pts',(-13.,7.30980814596325E-15,-7.89999999999999));
#266=CARTESIAN_POINT('Ctrl Pts',(-13.,7.89999999999999,-7.89999999999998));
#267=CARTESIAN_POINT('Ctrl Pts',(-13.,7.9,0.));
#268=CARTESIAN_POINT('Ctrl Pts',(-13.,7.89999999999999,7.89999999999998));
#269=CARTESIAN_POINT('Ctrl Pts',(-13.,7.30980814596325E-15,7.89999999999999));
#270=CARTESIAN_POINT('',(-13.,7.9,0.));
#271=CARTESIAN_POINT('',(-13.,7.30980814596325E-15,7.89999999999999));
#272=CARTESIAN_POINT('Origin',(-13.,7.30980814596325E-15,0.));
#273=CARTESIAN_POINT('Origin',(-13.,7.30980814596325E-15,0.));
#274=CARTESIAN_POINT('',(-20.7,-5.37876410951126E-15,0.));
#275=CARTESIAN_POINT('Ctrl Pts',(-13.,7.30980814596325E-15,7.89999999999999));
#276=CARTESIAN_POINT('Ctrl Pts',(-20.7024695217858,1.1640852334762E-14,
7.70493864781657));
#277=CARTESIAN_POINT('Ctrl Pts',(-20.7,1.16394637401107E-14,-1.37693675905659E-16));
#278=CARTESIAN_POINT('Origin',(-13.,4.25,0.));
#279=CARTESIAN_POINT('',(-13.,4.25,0.));
#280=CARTESIAN_POINT('Origin',(-13.,7.30980814596325E-15,0.));
#281=CARTESIAN_POINT('Origin',(-6.55,3.68301871969687E-15,0.));
#282=UNCERTAINTY_MEASURE_WITH_UNIT(LENGTH_MEASURE(0.01),#286,
'DISTANCE_ACCURACY_VALUE',
'Maximum model space distance between geometric entities at asserted c
onnectivities');
#283=UNCERTAINTY_MEASURE_WITH_UNIT(LENGTH_MEASURE(1.E-6),#286,
'DISTANCE_ACCURACY_VALUE',
'Maximum model space distance between geometric entities at asserted c
onnectivities');
#284=(
GEOMETRIC_REPRESENTATION_CONTEXT(3)
GLOBAL_UNCERTAINTY_ASSIGNED_CONTEXT((#282))
GLOBAL_UNIT_ASSIGNED_CONTEXT((#286,#289,#287))
REPRESENTATION_CONTEXT('','3D')
);
#285=(
GEOMETRIC_REPRESENTATION_CONTEXT(3)
GLOBAL_UNCERTAINTY_ASSIGNED_CONTEXT((#283))
GLOBAL_UNIT_ASSIGNED_CONTEXT((#286,#289,#287))
REPRESENTATION_CONTEXT('','3D')
);
#286=(
LENGTH_UNIT()
NAMED_UNIT(*)
SI_UNIT(.MILLI.,.METRE.)
);
#287=(
NAMED_UNIT(*)
SI_UNIT($,.STERADIAN.)
SOLID_ANGLE_UNIT()
);
#288=DIMENSIONAL_EXPONENTS(0.,0.,0.,0.,0.,0.,0.);
#289=(
CONVERSION_BASED_UNIT('degree',#291)
NAMED_UNIT(#288)
PLANE_ANGLE_UNIT()
);
#290=(
NAMED_UNIT(*)
PLANE_ANGLE_UNIT()
SI_UNIT($,.RADIAN.)
);
#291=PLANE_ANGLE_MEASURE_WITH_UNIT(PLANE_ANGLE_MEASURE(0.01745329252),#290);
#292=SHAPE_DEFINITION_REPRESENTATION(#293,#294);
#293=PRODUCT_DEFINITION_SHAPE('',$,#296);
#294=SHAPE_REPRESENTATION('',(#134),#284);
#295=PRODUCT_DEFINITION_CONTEXT('part definition',#300,'design');
#296=PRODUCT_DEFINITION('71007413DS',
'Blindstopfen-01-BT-0004-71007413DS',#297,#295);
#297=PRODUCT_DEFINITION_FORMATION('',$,#302);
#298=PRODUCT_RELATED_PRODUCT_CATEGORY(
'Blindstopfen-01-BT-0004-71007413DS',
'Blindstopfen-01-BT-0004-71007413DS',(#302));
#299=APPLICATION_PROTOCOL_DEFINITION('international standard',
'automotive_design',2009,#300);
#300=APPLICATION_CONTEXT(
'Core Data for Automotive Mechanical Design Process');
#301=PRODUCT_CONTEXT('part definition',#300,'mechanical');
#302=PRODUCT('71007413DS','Blindstopfen-01-BT-0004-71007413DS',
'Blindstopfen PG 13,5 (5-9/5-8,5)',(#301));
#303=PRESENTATION_STYLE_ASSIGNMENT((#304));
#304=SURFACE_STYLE_USAGE(.BOTH.,#305);
#305=SURFACE_SIDE_STYLE('',(#306));
#306=SURFACE_STYLE_FILL_AREA(#307);
#307=FILL_AREA_STYLE('',(#308));
#308=FILL_AREA_STYLE_COLOUR('',#309);
#309=COLOUR_RGB('',0.945098039215686,0.949019607843137,0.972549019607843);
ENDSEC;
END-ISO-10303-21;
