ISO-10303-21;
HEADER;
/* Generated by software containing ST-Developer
 * from STEP Tools, Inc. (www.steptools.com) 
 */

FILE_DESCRIPTION(
/* description */ ('Blindstopfen PG 7'),
/* implementation_level */ '2;1');

FILE_NAME(
/* name */ 
'Z:\\Inventor\\Blindstopfen\\Blindstopfen-710074xx\\71007407-RST.stp',
/* time_stamp */ '2022-02-08T14:03:15+01:00',
/* author */ ('sl'),
/* organization */ (''),
/* preprocessor_version */ 'ST-DEVELOPER v16.5',
/* originating_system */ 'Autodesk Inventor 2017',
/* authorisation */ '');

FILE_SCHEMA (('AUTOMOTIVE_DESIGN { 1 0 10303 214 3 1 1 }'));
ENDSEC;

DATA;
#10=MECHANICAL_DESIGN_GEOMETRIC_PRESENTATION_REPRESENTATION('',(#13),#175);
#11=SHAPE_REPRESENTATION_RELATIONSHIP('SRR','None',#184,#12);
#12=ADVANCED_BREP_SHAPE_REPRESENTATION('',(#14),#174);
#13=STYLED_ITEM('',(#193),#14);
#14=MANIFOLD_SOLID_BREP('Volumenk\X\F6rper1',#94);
#15=SPHERICAL_SURFACE('',#112,4.645);
#16=TOROIDAL_SURFACE('',#109,1.2,1.);
#17=CYLINDRICAL_SURFACE('',#107,2.2);
#18=CYLINDRICAL_SURFACE('',#116,3.2);
#19=PLANE('',#105);
#20=PLANE('',#111);
#21=PLANE('',#114);
#22=FACE_BOUND('',#37,.T.);
#23=FACE_BOUND('',#39,.T.);
#24=FACE_BOUND('',#41,.T.);
#25=FACE_BOUND('',#43,.T.);
#26=FACE_BOUND('',#47,.T.);
#27=FACE_BOUND('',#49,.T.);
#28=FACE_OUTER_BOUND('',#36,.T.);
#29=FACE_OUTER_BOUND('',#38,.T.);
#30=FACE_OUTER_BOUND('',#40,.T.);
#31=FACE_OUTER_BOUND('',#42,.T.);
#32=FACE_OUTER_BOUND('',#44,.T.);
#33=FACE_OUTER_BOUND('',#45,.T.);
#34=FACE_OUTER_BOUND('',#46,.T.);
#35=FACE_OUTER_BOUND('',#48,.T.);
#36=EDGE_LOOP('',(#71));
#37=EDGE_LOOP('',(#72));
#38=EDGE_LOOP('',(#73));
#39=EDGE_LOOP('',(#74));
#40=EDGE_LOOP('',(#75));
#41=EDGE_LOOP('',(#76));
#42=EDGE_LOOP('',(#77));
#43=EDGE_LOOP('',(#78));
#44=EDGE_LOOP('',(#79));
#45=EDGE_LOOP('',(#80));
#46=EDGE_LOOP('',(#81));
#47=EDGE_LOOP('',(#82));
#48=EDGE_LOOP('',(#83));
#49=EDGE_LOOP('',(#84));
#50=CIRCLE('',#103,3.);
#51=CIRCLE('',#104,3.2);
#52=CIRCLE('',#106,2.2);
#53=CIRCLE('',#108,2.2);
#54=CIRCLE('',#110,1.2);
#55=CIRCLE('',#113,4.6);
#56=CIRCLE('',#115,3.2);
#57=VERTEX_POINT('',#151);
#58=VERTEX_POINT('',#153);
#59=VERTEX_POINT('',#156);
#60=VERTEX_POINT('',#159);
#61=VERTEX_POINT('',#162);
#62=VERTEX_POINT('',#166);
#63=VERTEX_POINT('',#169);
#64=EDGE_CURVE('',#57,#57,#50,.T.);
#65=EDGE_CURVE('',#58,#58,#51,.T.);
#66=EDGE_CURVE('',#59,#59,#52,.T.);
#67=EDGE_CURVE('',#60,#60,#53,.T.);
#68=EDGE_CURVE('',#61,#61,#54,.T.);
#69=EDGE_CURVE('',#62,#62,#55,.T.);
#70=EDGE_CURVE('',#63,#63,#56,.T.);
#71=ORIENTED_EDGE('',*,*,#64,.F.);
#72=ORIENTED_EDGE('',*,*,#65,.T.);
#73=ORIENTED_EDGE('',*,*,#64,.T.);
#74=ORIENTED_EDGE('',*,*,#66,.F.);
#75=ORIENTED_EDGE('',*,*,#67,.F.);
#76=ORIENTED_EDGE('',*,*,#66,.T.);
#77=ORIENTED_EDGE('',*,*,#68,.F.);
#78=ORIENTED_EDGE('',*,*,#67,.T.);
#79=ORIENTED_EDGE('',*,*,#68,.T.);
#80=ORIENTED_EDGE('',*,*,#69,.F.);
#81=ORIENTED_EDGE('',*,*,#69,.T.);
#82=ORIENTED_EDGE('',*,*,#70,.F.);
#83=ORIENTED_EDGE('',*,*,#65,.F.);
#84=ORIENTED_EDGE('',*,*,#70,.T.);
#85=CONICAL_SURFACE('',#102,3.1,45.);
#86=ADVANCED_FACE('',(#28,#22),#85,.T.);
#87=ADVANCED_FACE('',(#29,#23),#19,.T.);
#88=ADVANCED_FACE('',(#30,#24),#17,.F.);
#89=ADVANCED_FACE('',(#31,#25),#16,.F.);
#90=ADVANCED_FACE('',(#32),#20,.T.);
#91=ADVANCED_FACE('',(#33),#15,.T.);
#92=ADVANCED_FACE('',(#34,#26),#21,.T.);
#93=ADVANCED_FACE('',(#35,#27),#18,.T.);
#94=CLOSED_SHELL('',(#86,#87,#88,#89,#90,#91,#92,#93));
#95=DATE_TIME_ROLE('creation_date');
#96=APPLIED_DATE_AND_TIME_ASSIGNMENT(#97,#95,(#186));
#97=DATE_AND_TIME(#98,#99);
#98=CALENDAR_DATE(2016,28,9);
#99=LOCAL_TIME(7,9,25.,#100);
#100=COORDINATED_UNIVERSAL_TIME_OFFSET(0,0,.BEHIND.);
#101=AXIS2_PLACEMENT_3D('placement',#149,#117,#118);
#102=AXIS2_PLACEMENT_3D('',#150,#119,#120);
#103=AXIS2_PLACEMENT_3D('',#152,#121,#122);
#104=AXIS2_PLACEMENT_3D('',#154,#123,#124);
#105=AXIS2_PLACEMENT_3D('',#155,#125,#126);
#106=AXIS2_PLACEMENT_3D('',#157,#127,#128);
#107=AXIS2_PLACEMENT_3D('',#158,#129,#130);
#108=AXIS2_PLACEMENT_3D('',#160,#131,#132);
#109=AXIS2_PLACEMENT_3D('',#161,#133,#134);
#110=AXIS2_PLACEMENT_3D('',#163,#135,#136);
#111=AXIS2_PLACEMENT_3D('',#164,#137,#138);
#112=AXIS2_PLACEMENT_3D('',#165,#139,#140);
#113=AXIS2_PLACEMENT_3D('',#167,#141,#142);
#114=AXIS2_PLACEMENT_3D('',#168,#143,#144);
#115=AXIS2_PLACEMENT_3D('',#170,#145,#146);
#116=AXIS2_PLACEMENT_3D('',#171,#147,#148);
#117=DIRECTION('axis',(0.,0.,1.));
#118=DIRECTION('refdir',(1.,0.,0.));
#119=DIRECTION('center_axis',(-1.,0.,0.));
#120=DIRECTION('ref_axis',(0.,1.,0.));
#121=DIRECTION('center_axis',(1.,0.,0.));
#122=DIRECTION('ref_axis',(0.,0.,-1.));
#123=DIRECTION('center_axis',(1.,0.,0.));
#124=DIRECTION('ref_axis',(0.,0.,-1.));
#125=DIRECTION('center_axis',(1.,0.,0.));
#126=DIRECTION('ref_axis',(0.,0.,-1.));
#127=DIRECTION('center_axis',(1.,0.,0.));
#128=DIRECTION('ref_axis',(0.,0.,-1.));
#129=DIRECTION('center_axis',(1.,0.,0.));
#130=DIRECTION('ref_axis',(0.,1.,0.));
#131=DIRECTION('center_axis',(1.,0.,0.));
#132=DIRECTION('ref_axis',(0.,0.,-1.));
#133=DIRECTION('center_axis',(1.,0.,0.));
#134=DIRECTION('ref_axis',(0.,0.,-1.));
#135=DIRECTION('center_axis',(1.,0.,0.));
#136=DIRECTION('ref_axis',(0.,0.,-1.));
#137=DIRECTION('center_axis',(1.,0.,0.));
#138=DIRECTION('ref_axis',(0.,0.,-1.));
#139=DIRECTION('center_axis',(0.,0.,1.));
#140=DIRECTION('ref_axis',(1.,0.,0.));
#141=DIRECTION('center_axis',(1.,0.,0.));
#142=DIRECTION('ref_axis',(0.,0.,-1.));
#143=DIRECTION('center_axis',(1.,0.,0.));
#144=DIRECTION('ref_axis',(0.,0.,-1.));
#145=DIRECTION('center_axis',(1.,0.,0.));
#146=DIRECTION('ref_axis',(0.,0.,-1.));
#147=DIRECTION('center_axis',(1.,0.,0.));
#148=DIRECTION('ref_axis',(0.,1.,0.));
#149=CARTESIAN_POINT('',(0.,0.,0.));
#150=CARTESIAN_POINT('Origin',(-0.1,0.,0.));
#151=CARTESIAN_POINT('',(6.84227765783602E-48,3.,0.));
#152=CARTESIAN_POINT('Origin',(0.,0.,0.));
#153=CARTESIAN_POINT('',(-0.2,3.2,0.));
#154=CARTESIAN_POINT('Origin',(-0.2,0.,0.));
#155=CARTESIAN_POINT('Origin',(5.01767028241308E-48,2.2,0.));
#156=CARTESIAN_POINT('',(0.,2.2,0.));
#157=CARTESIAN_POINT('Origin',(0.,0.,0.));
#158=CARTESIAN_POINT('Origin',(-6.25,0.,0.));
#159=CARTESIAN_POINT('',(-12.5,2.2,0.));
#160=CARTESIAN_POINT('Origin',(-12.5,0.,0.));
#161=CARTESIAN_POINT('Origin',(-12.5,0.,0.));
#162=CARTESIAN_POINT('',(-13.5,1.2,0.));
#163=CARTESIAN_POINT('Origin',(-13.5,0.,0.));
#164=CARTESIAN_POINT('Origin',(-13.5,1.38777878078145E-15,0.));
#165=CARTESIAN_POINT('Origin',(-11.355,5.55111512312578E-16,0.));
#166=CARTESIAN_POINT('',(-12.,4.6,0.));
#167=CARTESIAN_POINT('Origin',(-12.,0.,0.));
#168=CARTESIAN_POINT('Origin',(-12.,3.2,0.));
#169=CARTESIAN_POINT('',(-12.,3.2,0.));
#170=CARTESIAN_POINT('Origin',(-12.,0.,0.));
#171=CARTESIAN_POINT('Origin',(-6.1,0.,0.));
#172=UNCERTAINTY_MEASURE_WITH_UNIT(LENGTH_MEASURE(0.01),#176,
'DISTANCE_ACCURACY_VALUE',
'Maximum model space distance between geometric entities at asserted c
onnectivities');
#173=UNCERTAINTY_MEASURE_WITH_UNIT(LENGTH_MEASURE(1.E-6),#176,
'DISTANCE_ACCURACY_VALUE',
'Maximum model space distance between geometric entities at asserted c
onnectivities');
#174=(
GEOMETRIC_REPRESENTATION_CONTEXT(3)
GLOBAL_UNCERTAINTY_ASSIGNED_CONTEXT((#172))
GLOBAL_UNIT_ASSIGNED_CONTEXT((#176,#179,#177))
REPRESENTATION_CONTEXT('','3D')
);
#175=(
GEOMETRIC_REPRESENTATION_CONTEXT(3)
GLOBAL_UNCERTAINTY_ASSIGNED_CONTEXT((#173))
GLOBAL_UNIT_ASSIGNED_CONTEXT((#176,#179,#177))
REPRESENTATION_CONTEXT('','3D')
);
#176=(
LENGTH_UNIT()
NAMED_UNIT(*)
SI_UNIT(.MILLI.,.METRE.)
);
#177=(
NAMED_UNIT(*)
SI_UNIT($,.STERADIAN.)
SOLID_ANGLE_UNIT()
);
#178=DIMENSIONAL_EXPONENTS(0.,0.,0.,0.,0.,0.,0.);
#179=(
CONVERSION_BASED_UNIT('degree',#181)
NAMED_UNIT(#178)
PLANE_ANGLE_UNIT()
);
#180=(
NAMED_UNIT(*)
PLANE_ANGLE_UNIT()
SI_UNIT($,.RADIAN.)
);
#181=PLANE_ANGLE_MEASURE_WITH_UNIT(PLANE_ANGLE_MEASURE(0.01745329252),#180);
#182=SHAPE_DEFINITION_REPRESENTATION(#183,#184);
#183=PRODUCT_DEFINITION_SHAPE('',$,#186);
#184=SHAPE_REPRESENTATION('',(#101),#174);
#185=PRODUCT_DEFINITION_CONTEXT('part definition',#190,'design');
#186=PRODUCT_DEFINITION('71007407','Blindstopfen-01-BT-0001-71007407',#187,
#185);
#187=PRODUCT_DEFINITION_FORMATION('',$,#192);
#188=PRODUCT_RELATED_PRODUCT_CATEGORY(
'Blindstopfen-01-BT-0001-71007407','Blindstopfen-01-BT-0001-71007407',(#192));
#189=APPLICATION_PROTOCOL_DEFINITION('international standard',
'automotive_design',2009,#190);
#190=APPLICATION_CONTEXT(
'Core Data for Automotive Mechanical Design Process');
#191=PRODUCT_CONTEXT('part definition',#190,'mechanical');
#192=PRODUCT('71007407','Blindstopfen-01-BT-0001-71007407',
'Blindstopfen PG 7',(#191));
#193=PRESENTATION_STYLE_ASSIGNMENT((#194));
#194=SURFACE_STYLE_USAGE(.BOTH.,#195);
#195=SURFACE_SIDE_STYLE('',(#196));
#196=SURFACE_STYLE_FILL_AREA(#197);
#197=FILL_AREA_STYLE('',(#198));
#198=FILL_AREA_STYLE_COLOUR('',#199);
#199=COLOUR_RGB('',0.945098039215686,0.949019607843137,0.972549019607843);
ENDSEC;
END-ISO-10303-21;
