ISO-10303-21;
HEADER;
/* Generated by software containing ST-Developer
 * from STEP Tools, Inc. (www.steptools.com) 
 */

FILE_DESCRIPTION(
/* description */ ('Mehrfachdichteinsatz f\X\FCr Euro-Top M32; 6x6,0',
'CAx-IF Rec.Pracs.---Representation and Presentation of Product Manufa
cturing Information (PMI)---3.8---2014-02-18'),
/* implementation_level */ '2;1');

FILE_NAME(
/* name */ 
'Z:\\Inventor\\Mehrfachdichteinsatz\\MFD-fuer-Euro-Top\\05632660-RST.s
tp',
/* time_stamp */ '2024-06-13T13:20:10+02:00',
/* author */ ('sl'),
/* organization */ (''),
/* preprocessor_version */ 'ST-DEVELOPER v16.5',
/* originating_system */ 'Autodesk Inventor 2017',
/* authorisation */ '');

FILE_SCHEMA (('AP242_MANAGED_MODEL_BASED_3D_ENGINEERING_MIM_LF { 1 0 10303 442 1 1 4 }'));
ENDSEC;

DATA;
#10=MECHANICAL_DESIGN_GEOMETRIC_PRESENTATION_REPRESENTATION('',(#13),#299);
#11=SHAPE_REPRESENTATION_RELATIONSHIP('SRR','None',#308,#12);
#12=ADVANCED_BREP_SHAPE_REPRESENTATION('',(#14),#298);
#13=STYLED_ITEM('',(#317),#14);
#14=MANIFOLD_SOLID_BREP('Volumenk\X\F6rper1',#170);
#15=PLANE('',#201);
#16=PLANE('',#202);
#17=CYLINDRICAL_SURFACE('',#181,3.);
#18=CYLINDRICAL_SURFACE('',#184,3.);
#19=CYLINDRICAL_SURFACE('',#187,3.);
#20=CYLINDRICAL_SURFACE('',#190,3.);
#21=CYLINDRICAL_SURFACE('',#193,3.);
#22=CYLINDRICAL_SURFACE('',#196,3.);
#23=CYLINDRICAL_SURFACE('',#199,12.6);
#24=FACE_BOUND('',#55,.T.);
#25=FACE_BOUND('',#57,.T.);
#26=FACE_BOUND('',#59,.T.);
#27=FACE_BOUND('',#61,.T.);
#28=FACE_BOUND('',#63,.T.);
#29=FACE_BOUND('',#65,.T.);
#30=FACE_BOUND('',#67,.T.);
#31=FACE_BOUND('',#69,.T.);
#32=FACE_BOUND('',#71,.T.);
#33=FACE_BOUND('',#72,.T.);
#34=FACE_BOUND('',#73,.T.);
#35=FACE_BOUND('',#74,.T.);
#36=FACE_BOUND('',#75,.T.);
#37=FACE_BOUND('',#76,.T.);
#38=FACE_BOUND('',#78,.T.);
#39=FACE_BOUND('',#79,.T.);
#40=FACE_BOUND('',#80,.T.);
#41=FACE_BOUND('',#81,.T.);
#42=FACE_BOUND('',#82,.T.);
#43=FACE_BOUND('',#83,.T.);
#44=FACE_OUTER_BOUND('',#54,.T.);
#45=FACE_OUTER_BOUND('',#56,.T.);
#46=FACE_OUTER_BOUND('',#58,.T.);
#47=FACE_OUTER_BOUND('',#60,.T.);
#48=FACE_OUTER_BOUND('',#62,.T.);
#49=FACE_OUTER_BOUND('',#64,.T.);
#50=FACE_OUTER_BOUND('',#66,.T.);
#51=FACE_OUTER_BOUND('',#68,.T.);
#52=FACE_OUTER_BOUND('',#70,.T.);
#53=FACE_OUTER_BOUND('',#77,.T.);
#54=EDGE_LOOP('',(#129));
#55=EDGE_LOOP('',(#130));
#56=EDGE_LOOP('',(#131));
#57=EDGE_LOOP('',(#132));
#58=EDGE_LOOP('',(#133));
#59=EDGE_LOOP('',(#134));
#60=EDGE_LOOP('',(#135));
#61=EDGE_LOOP('',(#136));
#62=EDGE_LOOP('',(#137));
#63=EDGE_LOOP('',(#138));
#64=EDGE_LOOP('',(#139));
#65=EDGE_LOOP('',(#140));
#66=EDGE_LOOP('',(#141));
#67=EDGE_LOOP('',(#142));
#68=EDGE_LOOP('',(#143));
#69=EDGE_LOOP('',(#144));
#70=EDGE_LOOP('',(#145));
#71=EDGE_LOOP('',(#146));
#72=EDGE_LOOP('',(#147));
#73=EDGE_LOOP('',(#148));
#74=EDGE_LOOP('',(#149));
#75=EDGE_LOOP('',(#150));
#76=EDGE_LOOP('',(#151));
#77=EDGE_LOOP('',(#152));
#78=EDGE_LOOP('',(#153));
#79=EDGE_LOOP('',(#154));
#80=EDGE_LOOP('',(#155));
#81=EDGE_LOOP('',(#156));
#82=EDGE_LOOP('',(#157));
#83=EDGE_LOOP('',(#158));
#84=CIRCLE('',#179,11.82);
#85=CIRCLE('',#180,12.6);
#86=CIRCLE('',#182,3.);
#87=CIRCLE('',#183,3.);
#88=CIRCLE('',#185,3.);
#89=CIRCLE('',#186,3.);
#90=CIRCLE('',#188,3.);
#91=CIRCLE('',#189,3.);
#92=CIRCLE('',#191,3.);
#93=CIRCLE('',#192,3.);
#94=CIRCLE('',#194,3.);
#95=CIRCLE('',#195,3.);
#96=CIRCLE('',#197,3.);
#97=CIRCLE('',#198,3.);
#98=CIRCLE('',#200,12.6);
#99=VERTEX_POINT('',#257);
#100=VERTEX_POINT('',#259);
#101=VERTEX_POINT('',#262);
#102=VERTEX_POINT('',#264);
#103=VERTEX_POINT('',#267);
#104=VERTEX_POINT('',#269);
#105=VERTEX_POINT('',#272);
#106=VERTEX_POINT('',#274);
#107=VERTEX_POINT('',#277);
#108=VERTEX_POINT('',#279);
#109=VERTEX_POINT('',#282);
#110=VERTEX_POINT('',#284);
#111=VERTEX_POINT('',#287);
#112=VERTEX_POINT('',#289);
#113=VERTEX_POINT('',#292);
#114=EDGE_CURVE('',#99,#99,#84,.T.);
#115=EDGE_CURVE('',#100,#100,#85,.T.);
#116=EDGE_CURVE('',#101,#101,#86,.T.);
#117=EDGE_CURVE('',#102,#102,#87,.T.);
#118=EDGE_CURVE('',#103,#103,#88,.T.);
#119=EDGE_CURVE('',#104,#104,#89,.T.);
#120=EDGE_CURVE('',#105,#105,#90,.T.);
#121=EDGE_CURVE('',#106,#106,#91,.T.);
#122=EDGE_CURVE('',#107,#107,#92,.T.);
#123=EDGE_CURVE('',#108,#108,#93,.T.);
#124=EDGE_CURVE('',#109,#109,#94,.T.);
#125=EDGE_CURVE('',#110,#110,#95,.T.);
#126=EDGE_CURVE('',#111,#111,#96,.T.);
#127=EDGE_CURVE('',#112,#112,#97,.T.);
#128=EDGE_CURVE('',#113,#113,#98,.T.);
#129=ORIENTED_EDGE('',*,*,#114,.F.);
#130=ORIENTED_EDGE('',*,*,#115,.T.);
#131=ORIENTED_EDGE('',*,*,#116,.F.);
#132=ORIENTED_EDGE('',*,*,#117,.F.);
#133=ORIENTED_EDGE('',*,*,#118,.F.);
#134=ORIENTED_EDGE('',*,*,#119,.F.);
#135=ORIENTED_EDGE('',*,*,#120,.F.);
#136=ORIENTED_EDGE('',*,*,#121,.F.);
#137=ORIENTED_EDGE('',*,*,#122,.F.);
#138=ORIENTED_EDGE('',*,*,#123,.F.);
#139=ORIENTED_EDGE('',*,*,#124,.F.);
#140=ORIENTED_EDGE('',*,*,#125,.F.);
#141=ORIENTED_EDGE('',*,*,#126,.F.);
#142=ORIENTED_EDGE('',*,*,#127,.F.);
#143=ORIENTED_EDGE('',*,*,#115,.F.);
#144=ORIENTED_EDGE('',*,*,#128,.F.);
#145=ORIENTED_EDGE('',*,*,#128,.T.);
#146=ORIENTED_EDGE('',*,*,#117,.T.);
#147=ORIENTED_EDGE('',*,*,#119,.T.);
#148=ORIENTED_EDGE('',*,*,#121,.T.);
#149=ORIENTED_EDGE('',*,*,#123,.T.);
#150=ORIENTED_EDGE('',*,*,#125,.T.);
#151=ORIENTED_EDGE('',*,*,#127,.T.);
#152=ORIENTED_EDGE('',*,*,#114,.T.);
#153=ORIENTED_EDGE('',*,*,#116,.T.);
#154=ORIENTED_EDGE('',*,*,#118,.T.);
#155=ORIENTED_EDGE('',*,*,#120,.T.);
#156=ORIENTED_EDGE('',*,*,#122,.T.);
#157=ORIENTED_EDGE('',*,*,#124,.T.);
#158=ORIENTED_EDGE('',*,*,#126,.T.);
#159=CONICAL_SURFACE('',#178,12.21,45.);
#160=ADVANCED_FACE('',(#44,#24),#159,.F.);
#161=ADVANCED_FACE('',(#45,#25),#17,.F.);
#162=ADVANCED_FACE('',(#46,#26),#18,.F.);
#163=ADVANCED_FACE('',(#47,#27),#19,.F.);
#164=ADVANCED_FACE('',(#48,#28),#20,.F.);
#165=ADVANCED_FACE('',(#49,#29),#21,.F.);
#166=ADVANCED_FACE('',(#50,#30),#22,.F.);
#167=ADVANCED_FACE('',(#51,#31),#23,.T.);
#168=ADVANCED_FACE('',(#52,#32,#33,#34,#35,#36,#37),#15,.F.);
#169=ADVANCED_FACE('',(#53,#38,#39,#40,#41,#42,#43),#16,.T.);
#170=CLOSED_SHELL('',(#160,#161,#162,#163,#164,#165,#166,#167,#168,#169));
#171=DATE_TIME_ROLE('creation_date');
#172=APPLIED_DATE_AND_TIME_ASSIGNMENT(#173,#171,(#310));
#173=DATE_AND_TIME(#174,#175);
#174=CALENDAR_DATE(2024,12,6);
#175=LOCAL_TIME(22,0,0.,#176);
#176=COORDINATED_UNIVERSAL_TIME_OFFSET(0,0,.BEHIND.);
#177=AXIS2_PLACEMENT_3D('placement',#255,#203,#204);
#178=AXIS2_PLACEMENT_3D('',#256,#205,#206);
#179=AXIS2_PLACEMENT_3D('',#258,#207,#208);
#180=AXIS2_PLACEMENT_3D('',#260,#209,#210);
#181=AXIS2_PLACEMENT_3D('',#261,#211,#212);
#182=AXIS2_PLACEMENT_3D('',#263,#213,#214);
#183=AXIS2_PLACEMENT_3D('',#265,#215,#216);
#184=AXIS2_PLACEMENT_3D('',#266,#217,#218);
#185=AXIS2_PLACEMENT_3D('',#268,#219,#220);
#186=AXIS2_PLACEMENT_3D('',#270,#221,#222);
#187=AXIS2_PLACEMENT_3D('',#271,#223,#224);
#188=AXIS2_PLACEMENT_3D('',#273,#225,#226);
#189=AXIS2_PLACEMENT_3D('',#275,#227,#228);
#190=AXIS2_PLACEMENT_3D('',#276,#229,#230);
#191=AXIS2_PLACEMENT_3D('',#278,#231,#232);
#192=AXIS2_PLACEMENT_3D('',#280,#233,#234);
#193=AXIS2_PLACEMENT_3D('',#281,#235,#236);
#194=AXIS2_PLACEMENT_3D('',#283,#237,#238);
#195=AXIS2_PLACEMENT_3D('',#285,#239,#240);
#196=AXIS2_PLACEMENT_3D('',#286,#241,#242);
#197=AXIS2_PLACEMENT_3D('',#288,#243,#244);
#198=AXIS2_PLACEMENT_3D('',#290,#245,#246);
#199=AXIS2_PLACEMENT_3D('',#291,#247,#248);
#200=AXIS2_PLACEMENT_3D('',#293,#249,#250);
#201=AXIS2_PLACEMENT_3D('',#294,#251,#252);
#202=AXIS2_PLACEMENT_3D('',#295,#253,#254);
#203=DIRECTION('axis',(0.,0.,1.));
#204=DIRECTION('refdir',(1.,0.,0.));
#205=DIRECTION('center_axis',(0.,0.,1.));
#206=DIRECTION('ref_axis',(-1.,0.,0.));
#207=DIRECTION('center_axis',(0.,0.,1.));
#208=DIRECTION('ref_axis',(-1.,0.,0.));
#209=DIRECTION('center_axis',(0.,0.,1.));
#210=DIRECTION('ref_axis',(-1.,0.,0.));
#211=DIRECTION('center_axis',(0.,0.,1.));
#212=DIRECTION('ref_axis',(-1.,0.,0.));
#213=DIRECTION('center_axis',(0.,0.,-1.));
#214=DIRECTION('ref_axis',(-1.,0.,0.));
#215=DIRECTION('center_axis',(0.,0.,1.));
#216=DIRECTION('ref_axis',(-1.,0.,0.));
#217=DIRECTION('center_axis',(0.,0.,1.));
#218=DIRECTION('ref_axis',(-1.,0.,0.));
#219=DIRECTION('center_axis',(0.,0.,-1.));
#220=DIRECTION('ref_axis',(-1.,0.,0.));
#221=DIRECTION('center_axis',(0.,0.,1.));
#222=DIRECTION('ref_axis',(-1.,0.,0.));
#223=DIRECTION('center_axis',(0.,0.,1.));
#224=DIRECTION('ref_axis',(-1.,0.,0.));
#225=DIRECTION('center_axis',(0.,0.,-1.));
#226=DIRECTION('ref_axis',(-1.,0.,0.));
#227=DIRECTION('center_axis',(0.,0.,1.));
#228=DIRECTION('ref_axis',(-1.,0.,0.));
#229=DIRECTION('center_axis',(0.,0.,1.));
#230=DIRECTION('ref_axis',(-1.,0.,0.));
#231=DIRECTION('center_axis',(0.,0.,-1.));
#232=DIRECTION('ref_axis',(-1.,0.,0.));
#233=DIRECTION('center_axis',(0.,0.,1.));
#234=DIRECTION('ref_axis',(-1.,0.,0.));
#235=DIRECTION('center_axis',(0.,0.,1.));
#236=DIRECTION('ref_axis',(-1.,0.,0.));
#237=DIRECTION('center_axis',(0.,0.,-1.));
#238=DIRECTION('ref_axis',(-1.,0.,0.));
#239=DIRECTION('center_axis',(0.,0.,1.));
#240=DIRECTION('ref_axis',(-1.,0.,0.));
#241=DIRECTION('center_axis',(0.,0.,1.));
#242=DIRECTION('ref_axis',(-1.,0.,0.));
#243=DIRECTION('center_axis',(0.,0.,-1.));
#244=DIRECTION('ref_axis',(-1.,0.,0.));
#245=DIRECTION('center_axis',(0.,0.,1.));
#246=DIRECTION('ref_axis',(-1.,0.,0.));
#247=DIRECTION('center_axis',(0.,0.,1.));
#248=DIRECTION('ref_axis',(-1.,0.,0.));
#249=DIRECTION('center_axis',(0.,0.,-1.));
#250=DIRECTION('ref_axis',(-1.,0.,0.));
#251=DIRECTION('center_axis',(0.,0.,1.));
#252=DIRECTION('ref_axis',(1.,0.,0.));
#253=DIRECTION('center_axis',(0.,0.,1.));
#254=DIRECTION('ref_axis',(1.,0.,0.));
#255=CARTESIAN_POINT('',(0.,0.,0.));
#256=CARTESIAN_POINT('Origin',(0.,0.,13.41));
#257=CARTESIAN_POINT('',(11.82,1.44753251659217E-15,13.02));
#258=CARTESIAN_POINT('Origin',(0.,0.,13.02));
#259=CARTESIAN_POINT('',(12.6,1.54305496692567E-15,13.8));
#260=CARTESIAN_POINT('Origin',(0.,0.,13.8));
#261=CARTESIAN_POINT('Origin',(6.49519052838329,3.75,0.));
#262=CARTESIAN_POINT('',(9.49519052838329,3.75,13.02));
#263=CARTESIAN_POINT('Origin',(6.49519052838329,3.75,13.02));
#264=CARTESIAN_POINT('',(9.49519052838329,3.75,0.));
#265=CARTESIAN_POINT('Origin',(6.49519052838329,3.75,0.));
#266=CARTESIAN_POINT('Origin',(6.49519052838329,-3.75,0.));
#267=CARTESIAN_POINT('',(9.49519052838329,-3.75,13.02));
#268=CARTESIAN_POINT('Origin',(6.49519052838329,-3.75,13.02));
#269=CARTESIAN_POINT('',(9.49519052838329,-3.75,0.));
#270=CARTESIAN_POINT('Origin',(6.49519052838329,-3.75,0.));
#271=CARTESIAN_POINT('Origin',(-1.11022302462516E-15,-7.5,0.));
#272=CARTESIAN_POINT('',(3.,-7.5,13.02));
#273=CARTESIAN_POINT('Origin',(-1.11022302462516E-15,-7.5,13.02));
#274=CARTESIAN_POINT('',(3.,-7.5,0.));
#275=CARTESIAN_POINT('Origin',(-1.11022302462516E-15,-7.5,0.));
#276=CARTESIAN_POINT('Origin',(-6.49519052838329,-3.75,0.));
#277=CARTESIAN_POINT('',(-3.49519052838329,-3.75,13.02));
#278=CARTESIAN_POINT('Origin',(-6.49519052838329,-3.75,13.02));
#279=CARTESIAN_POINT('',(-3.49519052838329,-3.75,0.));
#280=CARTESIAN_POINT('Origin',(-6.49519052838329,-3.75,0.));
#281=CARTESIAN_POINT('Origin',(-6.49519052838329,3.75,0.));
#282=CARTESIAN_POINT('',(-3.49519052838329,3.75,13.02));
#283=CARTESIAN_POINT('Origin',(-6.49519052838329,3.75,13.02));
#284=CARTESIAN_POINT('',(-3.49519052838329,3.75,0.));
#285=CARTESIAN_POINT('Origin',(-6.49519052838329,3.75,0.));
#286=CARTESIAN_POINT('Origin',(0.,7.5,0.));
#287=CARTESIAN_POINT('',(3.,7.5,13.02));
#288=CARTESIAN_POINT('Origin',(0.,7.5,13.02));
#289=CARTESIAN_POINT('',(3.,7.5,0.));
#290=CARTESIAN_POINT('Origin',(0.,7.5,0.));
#291=CARTESIAN_POINT('Origin',(0.,0.,0.));
#292=CARTESIAN_POINT('',(12.6,1.54305496692567E-15,0.));
#293=CARTESIAN_POINT('Origin',(0.,0.,0.));
#294=CARTESIAN_POINT('Origin',(-7.16007503659232E-16,0.,0.));
#295=CARTESIAN_POINT('Origin',(-7.16007503659232E-16,0.,13.02));
#296=UNCERTAINTY_MEASURE_WITH_UNIT(LENGTH_MEASURE(0.01),#300,
'DISTANCE_ACCURACY_VALUE',
'Maximum model space distance between geometric entities at asserted c
onnectivities');
#297=UNCERTAINTY_MEASURE_WITH_UNIT(LENGTH_MEASURE(1.E-6),#300,
'DISTANCE_ACCURACY_VALUE',
'Maximum model space distance between geometric entities at asserted c
onnectivities');
#298=(
GEOMETRIC_REPRESENTATION_CONTEXT(3)
GLOBAL_UNCERTAINTY_ASSIGNED_CONTEXT((#296))
GLOBAL_UNIT_ASSIGNED_CONTEXT((#300,#303,#301))
REPRESENTATION_CONTEXT('','3D')
);
#299=(
GEOMETRIC_REPRESENTATION_CONTEXT(3)
GLOBAL_UNCERTAINTY_ASSIGNED_CONTEXT((#297))
GLOBAL_UNIT_ASSIGNED_CONTEXT((#300,#303,#301))
REPRESENTATION_CONTEXT('','3D')
);
#300=(
LENGTH_UNIT()
NAMED_UNIT(*)
SI_UNIT(.MILLI.,.METRE.)
);
#301=(
NAMED_UNIT(*)
SI_UNIT($,.STERADIAN.)
SOLID_ANGLE_UNIT()
);
#302=DIMENSIONAL_EXPONENTS(0.,0.,0.,0.,0.,0.,0.);
#303=(
CONVERSION_BASED_UNIT('degree',#305)
NAMED_UNIT(#302)
PLANE_ANGLE_UNIT()
);
#304=(
NAMED_UNIT(*)
PLANE_ANGLE_UNIT()
SI_UNIT($,.RADIAN.)
);
#305=PLANE_ANGLE_MEASURE_WITH_UNIT(PLANE_ANGLE_MEASURE(0.01745329252),#304);
#306=SHAPE_DEFINITION_REPRESENTATION(#307,#308);
#307=PRODUCT_DEFINITION_SHAPE('',$,#310);
#308=SHAPE_REPRESENTATION('',(#177),#298);
#309=PRODUCT_DEFINITION_CONTEXT('part definition',#314,'design');
#310=PRODUCT_DEFINITION('05632660',
'Mehrfachdichteinsatz-29-BT-0020-05632660',#311,#309);
#311=PRODUCT_DEFINITION_FORMATION('',$,#316);
#312=PRODUCT_RELATED_PRODUCT_CATEGORY(
'Mehrfachdichteinsatz-29-BT-0020-05632660',
'Mehrfachdichteinsatz-29-BT-0020-05632660',(#316));
#313=APPLICATION_PROTOCOL_DEFINITION('international standard',
'ap242_managed_model_based_3d_engineering',2011,#314);
#314=APPLICATION_CONTEXT('Managed model based 3d engineering');
#315=PRODUCT_CONTEXT('part definition',#314,'mechanical');
#316=PRODUCT('05632660','Mehrfachdichteinsatz-29-BT-0020-05632660',
'Mehrfachdichteinsatz f\X\FCr Euro-Top M32; 6x6,0',(#315));
#317=PRESENTATION_STYLE_ASSIGNMENT((#318));
#318=SURFACE_STYLE_USAGE(.BOTH.,#319);
#319=SURFACE_SIDE_STYLE('',(#320));
#320=SURFACE_STYLE_FILL_AREA(#321);
#321=FILL_AREA_STYLE('',(#322));
#322=FILL_AREA_STYLE_COLOUR('',#323);
#323=COLOUR_RGB('',0.250980392156863,0.250980392156863,0.250980392156863);
ENDSEC;
END-ISO-10303-21;
